Chixdiggit - I Wanna Hump You Chords & Tabs

 

I Wanna Hump You Chords & Tabs

Chixdiggit Chords & Tabs

Version: 1 Type: Bass Tab 0 ratings
1 star 2 stars 3 stars 4 stars 5 stars
comments

I Wanna Hump You Bass Tab

Band: Chixdiggit
Album: Chixdiggit!
Song: I Wanna Hump You
Tabbed by: Chris
*note: Since this songs played fairly fast, i'm not going to waste
my time typing out EVERY note.  If a note is played over and over, 
i'll just put a litte etc. in there or something.  Listen to the song
and it'll be easy to figure out from there.

Intro/Chorus: "I wanna hump you!"
G--------------
D--------------
A--------------
E--22---444etc-

Verse/Bass Solo Deal:
G-------------------------------
D-------------------------------
A-----44etc---------------------
E-----------1h22222-1h22222-----

G-------------------------------
D-------------------------------
A-----44etc---------------------
E-----------3h44444-3h44444-----

G-------------------------------
D-------------------------------
A-----44etc--/9999-8h99999------
E-------------------------------
[ Tab from: http://www.guitartabs.cc/tabs/c/chixdiggit/i_wanna_hump_you_btab.html ]
G-------------------------------
D--------------------6-4--------
A-----44etc-66-44etc------------
E-------------------------------

Bridge: (I wanna hump you noooow....) This is right before the guitar solo
G-------------------------------
D-------------------------------
A-----44etc---------------------
E-----------1h22222-1h22222-----

G-------------------------------
D-------------------------------
A-------------------------------
E-----3h44444-3h44444-----------

G-------------------------------
D-------------------------------
A----------------4444-----------
E-----2222--4444----------------

That's it.  I'm pretty sure it's right, but I'm not going to say anything
for sure because I've read too many tabs that say "THIS IS THE ONLY WAY 
TO PLAY IT" that are completely wrong.  If you have any comments, questions
or anything, email me.  Chris at Sauron420@home.com

Comments