Chixdiggit - I Remember You Chords & Tabs

 

I Remember You Chords & Tabs

Chixdiggit Chords & Tabs

Version: 1 Type: Tab 0 ratings
1 star 2 stars 3 stars 4 stars 5 stars
comments

I Remember You Tab

   
-------------------------------------------------------------------------------
			     I Remember You - Chixdiggit
-------------------------------------------------------------------------------
Tabbed by: Tyler J	
Email: Orion_95@hotmail.com

Tuning:EADGBE

This is my first tab, and I've only been playing guitar for about a month, but 
I know its %99 right.  It is all here except for the solo, which I havent figured 
out yet.  I will work on it, but if anyone else wants to add it, that would be cool.

Play Twice for Verse

e|---------------------------------------------------------------------------|  
B|---------------------------------------------------------------------------|  
G|--6-6-6-6-6-6-6-6-6-6-6-6-6-6-6-6---3-3-3-3-3-3-3-3-3-3-3-3-3-3-3-3--------|  
D|--6-6-6-6-6-6-6-6-6-6-6-6-6-6-6-6---3-3-3-3-3-3-3-3-3-3-3-3-3-3-3-3--------|  
A|--4-4-4-4-4-4-4-4-4-4-4-4-4-4-4-4---1-1-1-1-1-1-1-1-1-1-1-1-1-1-1-1--------|  
E|---------------------------------------------------------------------------|  

e|---------------------------------------------------------------------------|  
B|---------------------------------------------------------------------------|
G|---------------------------------------------------------------------------|
D|--4-4-4-4-4-4-4-4-4-4-4-4-4-4-4-4---6-6-6-6-6-6-6-6-6-6-6-6-6-6-6-6--------|
A|--4-4-4-4-4-4-4-4-4-4-4-4-4-4-4-4---6-6-6-6-6-6-6-6-6-6-6-6-6-6-6-6--------|
E|--2-2-2-2-2-2-2-2-2-2-2-2-2-2-2-2---4-4-4-4-4-4-4-4-4-4-4-4-4-4-4-4--------|


Chorus

e|---------------------------------------------------------------------------|
B|---------------------------------------------------------------------------|
G|---------------------------------------------------------------------------|
D|--4-4-4-4-4-4-4-4---6-6-6-6-6-6-6-6---11-11-11-11-11-11-11-11--------------|
A|--4-4-4-4-4-4-4-4---6-6-6-6-6-6-6-6---11-11-11-11-11-11-11-11--------------|
E|--2-2-2-2-2-2-2-2---4-4-4-4-4-4-4-4---9--9--9--9--9--9--9--9---------------|
[ Tab from: http://www.guitartabs.cc/tabs/c/chixdiggit/i_remember_you_tab.html ]
e|---------------------------------------------------------------------------|
B|---------------------------------------------------------------------------|
G|---------------------------------------------------------------------------|
D|--8-8-8-8-8-8-8-8---4-4-4-4-4-4-4-4---6-6-6-6-6-6-6-6--11-11-11-11-11-11-11|
A|--8-8-8-8-8-8-8-8---4-4-4-4-4-4-4-4---6-6-6-6-6-6-6-6--11-11-11-11-11-11-11|
E|--6-6-6-6-6-6-6-6---2-2-2-2-2-2-2-2---4-4-4-4-4-4-4-4---9--9--9--9--9--9--9|

e|---------------------------------------------------------------------------|
B|---------------------------------------------------------------------------|
G|---------------------------------------------------------------------------|
D|-11---8-8-8-8-8-8-8-8---4-4-4-4-4-4-4-4---6-6-6-6-6-6-6-6---4-4-4-4-4-4-4-4|
A|-11---8-8-8-8-8-8-8-8---4-4-4-4-4-4-4-4---6-6-6-6-6-6-6-6---4-4-4-4-4-4-4-4|
E|--9---6-6-6-6-6-6-6-6---2-2-2-2-2-2-2-2---4-4-4-4-4-4-4-4---2-2-2-2-2-2-2-2|

e|---------------------------------------------------------------------------|
B|---------------------------------------------------------------------------|
G|---------------------------------------------------------------------------|
D|-6-6-6-6-6-6-6-6-----------------------------------------------------------|
A|-6-6-6-6-6-6-6-6-----------------------------------------------------------|
E|-4-4-4-4-4-4-4-4-----------------------------------------------------------|

e|---------------------------------------------------------------------------|
B|---------------------------------------------------------------------------|
G|---------------------------------------------------------------------------|
D|---------------------------------------------------------------------------|
A|---------------------------------------------------------------------------|
E|---------------------------------------------------------------------------|

e|---------------------------------------------------------------------------|
B|---------------------------------------------------------------------------|
G|---------------------------------------------------------------------------|
D|---------------------------------------------------------------------------|
A|---------------------------------------------------------------------------|
E|---------------------------------------------------------------------------|


| /  slide up
| \  slide down
| h  hammer-on
| p  pull-off
| ~  vibrato
| +  harmonic
| x  Mute note
===============================================================================
Comments