Chixdiggit - Hemp Hemp Hooray Chords & Tabs

 

Hemp Hemp Hooray Chords & Tabs

Chixdiggit Chords & Tabs

Version: 1 Type: Bass Tab 0 ratings
1 star 2 stars 3 stars 4 stars 5 stars
comments

Hemp Hemp Hooray Bass Tab

   
Hemp Hemp Hooray
Chixdiggit
from self titled
tabbed by Mike


Intro
G-----------------------------------------------------------------
D-----------------------------------------------------------------
A--3-3-3-3-3-3-3-3------------------------------------------------
E-----------------1-1-1-1-1-1-1-1-3-3-3-3-3-3-3-3-1-1-1-1-1-1-1-1-

Verse
G-----------------------------------------------------------------
D-----------------------------------------------------------------
A-3-3-3-3-3-3-3-3-------------------------------------------------
E-----------------3-3-3-3-3-3-3-3-1-1-1-1-1-1-1-1-3-3-3-3-3-3-3-3-
[ Tab from: http://www.guitartabs.cc/tabs/c/chixdiggit/hemp_hemp_hooray_btab.html ]
Prechorus
G-----------------------------------------------------------------
D-----------------------------------------------------------------
A---------------------------------0-0-0-0-0-0-0-0-----------------
E-1-1-1-1-1-1-1-1-3-3-3-3-3-3-3-3-----------------1-1-1-1-1-1-1-1-

cont'd
G---------------------------------
D---------------------------------
A---------------------------------
E-1-1-1-1-1-1-1-1-3-3-3-3-3-3-3-3-

Chorus
G-----------------------------------------------------------------
D-----------------------------------------------------------------
A--3-3-3-3-3-3-3-3------------------------------------------------
E-----------------1-1-1-1-1-1-1-1-3-3-3-3-3-3-3-3-1-1-1-1-1-1-1-1-
Comments