Chiodos - Were Gonna Have Us A Champagne Jam Chords & Tabs

 

Were Gonna Have Us A Champagne Jam Chords & Tabs

Chiodos Chords & Tabs

Version: 1 Type: Tab

Were Gonna Have Us A Champagne Jam Tab

this is pretty much my first tab, its an amazing intro and not hard at all once you
get the picking down. im pretty sure this is 100% accurate

-----------------------------------------------------------------------------------------------------|
------------------------------------------------------------------------------15-15-15---------------|
---------------------15-15-15-14-14-14-------12-12-------------------15-15-15----------14-14-15-15---|
------------12-12-12-------------------15-15----------------12-12-12---------------------------------|
---10-10-10----------------------------------------10-10-10------------------------------------------|
-----------------------------------------------------------------------------------------------------|
[ Tab from: http://www.guitartabs.cc/tabs/c/chiodos/were_gonna_have_us_a_champagne_jam_tab.html ]
-----------------------------------------------------------------------------------------------------|
-----------------------------------------------------------------------------------------------------|
---------------------15-15-15-14-14-14-14-14-14-14----------12-12-12-------10-10-10-10-10-10-10------|
------------12-12-12-------------------------------------------------10-10---------------------------|
---13-13-13------------------------------------------------------------------------------------------|
---------------------------------------------------10-10-10------------------------------------------|

------------------------------------------------------------------------------15-15-15---------------|
---------------------------------------------------------------------------------------15-15---------|
---------------------15-15-15-14-14-14-------12-12-------------------15-15-15----------------15-15---|
------------12-12-12-------------------15-15----------------12-12-12---------------------------------|
---10-10-10----------------------------------------10-10-10------------------------------------------|
-----------------------------------------------------------------------------------------------------|

-----------------------------------------------------------------------------------------------------|
-----------------------------------------------------------------------------------------------------|
---------------------15-15-15-14-14-14-14-14-14-14----------12-12-12-------10-10-10-10-10-10-12------|
------------12-12-12-------------------------------------------------12-12---------------------------|
---13-13-13------------------------------------------------------------------------------------------|
---------------------------------------------------10-10-10------------------------------------------|