Chiodos - Theres No Penguins In Alaska Chords & Tabs

 

Theres No Penguins In Alaska Chords & Tabs

Chiodos Chords & Tabs

Version: 3 Type: Tab

Theres No Penguins In Alaska Tab

   
i listened to this song for about an hour with my guitar in my hand and this is what i came up with.

guitar 1:
e-------------------------------|
B-------------------------------|
G-777-777-777-7-5-333-333-555-5-|
D-xxx-xxx-xxx-x-x-xxx-xxx-xxx-x-|    intro/verse
A-555-555-555-5-3-111-111-333-3-|
D-------------------------------|

guitar 2:
e----------------------------------------------------|
B----------------------------------------------------|
G-ten-ten-ten-1012-1414141414-1515-1212121212-141414-|
D-xxx-xxx-xxx-x-xx-xxxxxxxxxx-xxxx-xxxxxxxxxx-xxxxxx-|
A-888-888-888-8-10-1212121212-1313-1010101010-121212-|
D----------------------------------------------------|
[ Tab from: http://www.guitartabs.cc/tabs/c/chiodos/theres_no_penguins_in_alaska_tab_ver_3.html ]
e-----------------------------------|
B-----------------------------------|
G-ten-999-121212-12-10777777-999999-|
D-xxx-xxx-xxxxxx-xx-x-xxxxxx-xxxxxx-|
A-888-777-101010-10-8-555555-777777-|
D-----------------------------------|

guitar 1:
e----------------------------------|
B---------1313------------1313-----|
G-----1414----1414----1414----1414-|
D-1212------------1212-------------|
A----------------------------------|
D----------------------------------|

guitar 2:
e--------------------------|
B--------------------------|
G-----55------55------55---|
D---77--77--77--77--77--77-|
A-55------55------55-------|
D--------------------------|

e-121312--1513121312--1513121312---|
B-------13----------13----------13-|
G----------------------------------|
D----------------------------------|
A----------------------------------|
D----------------------------------|

e---------------------------------------|
B---------------------------------------|
G---------------------------------------|
D---------------------------------------|
A---5-3-5-8-7-5h7p0---8-7h8p0-----7--10-|
D-00-0-0-0-0-0-----8-8-8-----10-10-10---|
  ** * * * * *       * *         *  *