Chiodos - The Worlds Best Friendbecome Redefined Chords & Tabs

 

The Worlds Best Friendbecome Redefined Chords & Tabs

Chiodos Chords & Tabs

Version: 1 Type: Tab 0 ratings
1 star 2 stars 3 stars 4 stars 5 stars
comments

The Worlds Best Friendbecome Redefined Tab

Tabbed by:payde
Email:rssfootballjr610@netscape.net
CHIODOS
the worlds'best friend' become redefined #6 on the new cd
Tuning:dadgbe
 1st guitar                  4x
e|--------------------------------------------------------------------------|
B|--------------------------------------------------------------------------|
G|--------------------------------------------------------------------------|
D|-000755332223222-1h2p1h2p1h2-0007553355578877-----------------------------|
A|--------------------------------------------------------------------------|
E|--------------------------------------------------------------------------|
2nt guitar                         2x
e|--------------------------------------------------------------------------|
B|--------------------------------------------------------------------------|
G|-777777777-10101010101010-888--66666666-10101010101010-999-101010---------|
D|-xxxxxxxxx-x-x-x-x-x-x-x--xxx--xxxxxxxx-x-x-x-x-x-x-x--xxx-x-x-x----------|
A|-555555555-8-8-8-8-8-8-8--666--44444444-8-8-8-8-8-8-8--777-8-8-8----------|
E|--------------------------------------------------------------------------|
next guitar part comes in at 1:47 repet 2times but the 2nt time go strum each note 
fast
e|--------------------------------------------------------------------------|
B|-15-13-151713-10-81011-13-------------------------------------------------|
G|--------------------------------------------------------------------------|
D|--------------------------------------------------------------------------|
A|--------------------------------------------------------------------------|
E|--------------------------------------------------------------------------|
BREAKDOWN!!! 1
e|--------------------------------------------------------------------------|
B|--------------------------------------------------------------------------|
G|--------------------------------------------------------------------------|
D|--------------------------------------------------------------------------|
A|--------------------------------------------------------------------------|
E|-00-0000-00-0000-00-0000-00-0000------------------------------------------|
   .. .... .. .... .. .... .. ....
BREAKDOWN!!! 2 afeter the awsome sounding beat
e|--------------------------------------------------------------------------|
B|--------------------------------------------------------------------------|
G|---10----10--10----10--10----10--10----10--10---10--10--------------------|
D|--------------------------------------------------------------------------|
A|---13----13--13----13--13----13--13----13--13----13--13-------------------|
E|-00--0000--00--0000--00--0000--00--0000--00--0000--00--0000---------------|
   ..  ....  ..  ....  ..  ....  ..  ....  ..  ....  ..  ....
BREAKDOWN!! part 3
e|--------------------------------------------------------------------------|
B|--------------------------------------------------------------------------|
G|--------------------------------------------------------------------------|
D|--------------------------------------------------------------------------|
A|--------------------------------------------------------------------------|
E|-00-0000-00-0000-00-0000-00-0000-00-0000-00-0000-00-0000-00-0000----------|
   .. .... .. .... .. .... .. .... .. .... .. .... .. .... .. ....

CHIODOS IS AWSOME!!! these tabs are 99% correct if u find a problem plees email me at 
or www.myspace.com/thispistolismyministry thands enjoy and GOD BLESS
[ Tab from: http://www.guitartabs.cc/tabs/c/chiodos/the_worlds_best_friendbecome_redefined_tab.html ]
Comments