Chiodos - One Day Women Will All Become Monsters Chords & Tabs

 

One Day Women Will All Become Monsters Chords & Tabs

Chiodos Chords & Tabs

Version: 1 Type: Tab

One Day Women Will All Become Monsters Tab

   
----------------------------------------------------------------------------
One Day Women Will All Become Monsters - Chiodos
----------------------------------------------------------------------------

Tabbed by:Chiodosss           Im me if any problems xsaosinx06

Email:erebus@adelphia.net

Tuning:Drop D

e|------------------|
B|------------------|
G|---55-77-99-1010--|(played once)
D|------------------|
A|---33-55-77-8-8---|
D|------------------|

e|-------------------------|
B|-------------------------|
G|----7-10-9-----7-10-9-7--|(Repeat Twice)
D|-------------------------|
A|----5--8-7-----5--8-7-5--|
D|-------------------------|

e|-----------------------------|
B|-----------------------------|
G|---55-77-99-1010----------5--|(Played once
D|--------------------------5--|
A|---33-55-77-8-8-----------3--|
D|-----------------------------|

(this part is played by just hammering on and then pulling off by just hitting the frets with ur fingers)
e|---------------------h10p0-h10p0-h9p0-h9p0-h8p0-h8p0-h7p0-h7p0-h6p0-h6p0----|
B|h7p0-h8p0-h9p0-h10p0--------------------------------------------------------|
G|----------------------------------------------------------------------------|
D|----------------------------------------------------------------------------|
A|----------------------------------------------------------------------------|
D|----------------------------------------------------------------------------|

e|---------------------h7p0-h7p0-h6p0-h6p0-h5p0-h5p0-h4p0-h4p0-h3p0-h3p0--|
B|-h4p0-h5p0-h6p0-h7p0----------------------------------------------------|
G|------------------------------------------------------------------------|
D|------------------------------------------------------------------------|(repeat both parts twice)
A|------------------------------------------------------------------------|
D|------------------------------------------------------------------------|

e|----------------------------------------------------------|
B|----------------------------------------------------------|
G|--55-7777--99-10101010-10-9------55-7777-99-101010-14-12--|
D|----------------------------------------------------------|(repeat twice)
A|--33-5555--77--8-8-8-8--8-7------33-5555-77--8-8-8-12-10--|
D|----------------------------------------------------------|

e|-----------------------------------------------------|
B|-----------------------------------------------------|
G|----17p19-17p19-15p17-15p17-13p15-13p15-12p14-12p14--|(repeat three times)
D|-----------------------------------------------------|
A|-----------------------------------------------------|
D|-----------------------------------------------------|

e|----------------------------------------------------------------------------|
B|----------------------------------------------------------------------------|
G|----9-8-7-8-9---------------------------------------------------------------|
D|----9-8-7-8-9---------------------------------------------------------------|
A|----7-6-5-6-7---------------------------------------------------------------|
D|----------------------------------------------------------------------------|

e|-----------------------------------------------------|
B|-----------------------------------------------------|
G|----17p19-17p19-15p17-15p17-13p15-13p15-12p14-12p14--|(repeat twice times)
D|-----------------------------------------------------|
A|-----------------------------------------------------|
D|-----------------------------------------------------|

e|------------------|
B|------------------|
G|---55-77-99-1010--|(played once)
D|------------------|
A|---33-55-77-8-8---|
D|------------------|
[ Tab from: http://www.guitartabs.cc/tabs/c/chiodos/one_day_women_will_all_become_monsters_tab.html ]
e|-------------------------|
B|-------------------------|
G|----7-10-9-----7-10-9-7--|(Repeat Twice)
D|-------------------------|
A|----5--8-7-----5--8-7-5--|
D|-------------------------|

e|----------------------------------------------------------------------------|
B|----------------------------------------------------------------------------|
G|---5555555555-7777777777--9999999999--10101010--1010-99---------------------|
D|----------------------------------------------------------------------------|
A|---3333333333-5555555555--7777777777---8-8-8-8---8-8-77---------------------|
D|----------------------------------------------------------------------------|
      **** **    **** **     **** **       * *
|-----------------------------------------------------------------------------|
B|----------------------------------------------------------------------------|
G|---5555555555-7777777777--9999999999--10101010--1414-1212-------------------|
D|----------------------------------------------------------------------------|
A|---3333333333-5555555555--7777777777---8-8-8-8--1212-1010-------------------|
D|----------------------------------------------------------------------------|
      **** **    **** **     **** **       * *


e|----------------|
B|----------------|
G|----------------|
D|-22-1-3-22-1-3--|(keep the same kind of pattern going)
A|-22-1-3-22-1-3--|
D|-22-1-3-22-1-3--|
   ** * * ** * *


e|------------------------------------------14151617-14151617--|
B|------------------------14151617-14151617--------------------|
G|-----14151617-14151617---------------------------------------|
D|-------------------------------------------------------------|
A|-------------------------------------------------------------|(very fast picking)
D|-------------------------------------------------------------|


e|----------------------------------------17181920-17181920--|
B|----------------------17181920-17181920--------------------|
G|----17181920-17181920--------------------------------------|(very fast picking
D|-----------------------------------------------------------|
A|-----------------------------------------------------------|
D|-----------------------------------------------------------|

e|---------------------------------------------|
B|---------------7-6------------------4-3------|(repeat a couple of times)
G|--------10-8-6-----8-7-6--6--4p54p3-----5-4--|
D|---------------------------------------------|
A|---------------------------------------------|
D|---------------------------------------------|

e|------------------|
B|------------------|
G|---55-77-99-1010--|(played once)
D|------------------|
A|---33-55-77-8-8---|
D|------------------|

e|----------------------------------------------------------------------------|
B|----------------------------------------------------------------------------|
G|---5-5-5-7-7-7-9-9-9-10-1010-99---------------------------------------------|
D|----------------------------------------------------------------------------|
A|---3-3-3-5-5-5-7-7-7-8---8-8-77---------------------------------------------|
D|----------------------------------------------------------------------------|

e|----------------------------------------------------------------------------|
B|----------------------------------------------------------------------------|
G|---5-5-5-7-7-7-9-9-9-10-1414-1212-------------------------------------------|
D|----------------------------------------------------------------------------|
A|---3-3-3-5-5-5-7-7-7-8--1212-1010-------------------------------------------|
D|----------------------------------------------------------------------------|

e|-------------|
B|-------------|
G|---55-77-99--|(played once)
D|-------------|
A|---33-55-77--|
D|-------------|


| /  slide up
| \  slide down
| h  hammer-on
| p  pull-off
| ~  vibrato
| +  harmonic
| * palm mute
==================================================================