Chiodos - Baby You Wouldnt Last A Minute On The Creek Chords & Tabs

 

Baby You Wouldnt Last A Minute On The Creek Chords & Tabs

Chiodos Chords & Tabs

Version: 2 Type: Tab

Baby You Wouldnt Last A Minute On The Creek Tab

e-----------------------------------|
B---10-8-6-5-6-8-6---6-6---6-6---6--|
G--7--7-7-7-7-7-7-7-7-7-7-7-7-7-7-7-| repeat a couple of times
D-0----------------8-----7-----7----|
A-----------------------------------|
E-----------------------------------|
[ Tab from: http://www.guitartabs.cc/tabs/c/chiodos/baby_you_wouldnt_last_a_minute_on_the_creek_tab_ver_2.html ]
e-----------------------------------|
b-----------------------------------|
g--7777-9999-1010-10101010-9999-----|
d--7777-9999-1010-8-8-8-8--9999-----|
a--5555-7777-8-8--8-8-8-8--7777-----|
e-----------------------------------|

e-----------------------------------|
b-----------------10101010----------|
g--7777-9999-1010-10101010-12121212-|
d--7777-9999-1010-8-8-8-8--12121212-|
a--5555-7777-8-8-----------10101010-|
e-----------------------------------|
i was messing around and i got this part.. sry about the rest i dont feel like getting it