Chingon - Malaguena Salerosa Chords & Tabs

 

Malaguena Salerosa Chords & Tabs

Chingon Chords & Tabs

Version: 2 Type: Tab 0 ratings
1 star 2 stars 3 stars 4 stars 5 stars
comments

Malaguena Salerosa Tab

   
Artist: Chingon
Song: Malaguena Salerosa
Album: Kill Bill Vol. 2 OST

TABBED BY EUSTIN

I tabbed this song for a school performance, so it was transcribed for 2 guitars. I
couldn't figure out some of the fast runs,
so I made some up. Feel free to make changes, but acknowledge me.
Thanks to Phrekwenci's tab for the chords to the song.

Guitar 1:

Intro Riff:

E||-------------------|-------------------|-------------------|-----------------|
B||--0--4--0--4--7----|--0--4--0--4--7----|--0--4--0--4--7----|--5--4--5--------|
G||-------------------|-------------------|-------------------|-----------------|
D||-------------------|-------------------|-------------------|-----------------|
A||-------------------|-------------------|-------------------|-----------------|
E||-------------------|-------------------|-------------------|-----------------|

-------------------|-------------------|--5----------------|-----------------|--------------5-----|
--0--5--0--5--8----|--0--5--0--5--8----|-----8--7--5--5----|-----------------|--4--7--4--7-----7--|
-------------------|-------------------|-------------------|--8--7--8--------|--------------------|
-------------------|-------------------|-------------------|-----------------|--------------------|
-------------------|-------------------|-------------------|-----------------|--------------------|
-------------------|-------------------|-------------------|-----------------|--------------------|

--------------5----|--7--5--------5----|-----------------|-------5----7--5--|--------5-----------|
--4--7--4--7-------|--------8--7-------|--8--7--8--------|--8---------------|--8--7-----8--7--5--|
-------------------|-------------------|-----------------|------------------|--------------------|
-------------------|-------------------|-----------------|------------------|--------------------|
-------------------|-------------------|-----------------|------------------|--------------------|
-------------------|-------------------|-----------------|------------------|--------------------|

--------------------|-----------------|--------------|--7--7--7--8--8--8--7--7--7--|
--8--7--5-----5--7--|--5--4-----------|--------------|-----------------------------|
-----------8--------|--------4--------|--------------|-----------------------------|
--------------------|-----------------|--------------|-----------------------------|
--------------------|-----------------|--------------|-----------------------------|
--------------------|-----------------|--------------|-----------------------------|

--5--5--5--3--3--3--2--2--2--|--0------------|---------------|---------------|------------6--|
-----------------------------|---------------|------------7--|--8------------|---------------|
-----------------------------|---------------|---------------|---------------|---------------|
-----------------------------|---------------|---------------|---------------|---------------|
-----------------------------|---------------|---------------|---------------|---------------|
-----------------------------|---------------|---------------|---------------|---------------|

--7------------|------------11--|--12-----|
---------------|----------------|---------|
---------------|----------------|---------|
---------------|----------------|---------|
---------------|----------------|---------|
---------------|----------------|---------|

Em
Que bonitos ojos tienes
                    Am
Debajo de esas dos cejas
                     D
Debajo de esas dos cejas
                   B7
Que bonitos ojos tienes.

 Em
Ellos me quieren mirar
                   Am
Pero si tu no los dejas
                    D
Pero si tu no los dejas
               B7
Ni siquiera parpadear.


Verse Riffs:


#1

|----7--7--7--7--85-|
|--------------------|
|--------------------|
|--------------------|
|--------------------|
|--------------------|

#2

|--------7--7--8--|--11--8-11-7--8--7--6--|--7--6-----------6--|
|-----------------|-----------------------|--------8--7--8-----|
|-----------------|-----------------------|--------------------|
|-----------------|-----------------------|--------------------|
|-----------------|-----------------------|--------------------|
|-----------------|-----------------------|--------------------|

------------------|
--7---------------|
------------------|
------------------|
---------2--0-----|
---------------3--|

#3
                                                                          Malaguena
7-7-7-7--7--8--11--8-11-7--8--|--7--6--7--8--7--6--|--7------------|------|------|
------------------------------|--------------------|---------------|------|------|
------------------------------|--------------------|---------------|------|------|
------------------------------|--------------------|---------------|------|------|
------------------------------|--------------------|---------------|------|------|
------------------------------|--------------------|---------------|------|------|
                                     Salerosa
--15--14--14--14--14--12--|--11------------|------|
--------------------------|----------------|------|
--------------------------|----------------|------|
--------------------------|----------------|------|
--------------------------|----------------|------|
--------------------------|----------------|------|

Chords to Prechorus:

B7           Em
Malaguena salerosa
                    D
Besar tus labios quisiera
                    G
Besar tus labios quisiera.
             B7
Malaguena salerosa
                  Em
Y decirte nina hermosa.


Riffs of Prechorus:


|--------12--12--14--|--15--14--12--------|--------12--15--14--|
|--------------------|--------------------|--------------------|
|--------------------|--------------------|--------------------|
|--------------------|--------------------|--------------------|
|--------------------|--------------------|--------------------|
|--------------------|--------------------|--------------------|

--12------12--------|--------15-15-15-15--15--|--14--12--12--12--12--12--|--12/-7----7--7--8--|
------15------------|-------------------------|--------------------------|--------------------|
--------------------|-------------------------|--------------------------|--------------------|
--------------------|-------------------------|--------------------------|--------------------|
--------------------|-------------------------|--------------------------|--------------------|
--------------------|-------------------------|--------------------------|--------------------|
       Que eres  lin
--7------------|--------------------|--------------------------|---------------|------|
---------------|--------------------|--------------------------|---------------|------|
---------------|--------------------|--------------------------|---------------|------|
---------------|--------------------|--0-2-4-4-2-0-------------|---------------|------|
---------------|--------------0-2-3-|--------------3-2-0-------|---------------|------|
---------------|--------0-2-3-------|--------------------3-2-2-|--0------------|------|

--------------------|--------------------------|---------------|------|--------------------------|
--------------------|--------------------------|---------------|------|--8-8-8-8-8-8-8-8-8-8-8-8-|
--------------------|--------------------------|---------------|------|--------------------------|
--------------------|--0-2-4-4-2-0-------------|---------------|------|--------------------------|
--------------0-2-3-|--------------3-2-0-------|---------------|------|--------------------------|
--------0-2-3-------|--------------------3-2-2-|--0------------|------|--------------------------|

--------------------------------------|--12-12-12-12-12-12-12-12-12-12-12-12-|
--12-12-12-12-12-12-12-12-12-12-12-12-|--------------------------------------|
--------------------------------------|--------------------------------------|
--------------------------------------|--------------------------------------|
--------------------------------------|--------------------------------------|
--------------------------------------|--------------------------------------|

   da y hechicera
--15-15-15-15-15-15-15-15-15-15-15-15-|
--------------------------------------|
--------------------------------------|
--------------------------------------|
--------------------------------------|
--------------------------------------|


Chords to Chorus:


Em                         D
Que eres lin........da y hechicera,
                    G
Que eres linda y hechicera
                       B7
Como el candor de una rosa.


Back to Intro Riff:


-------------------|-------------------|-----------------|-------------------|-------------------|
--0--4--0--4--7----|--0--4--0--4--7----|--5--4--5--------|--0--5--0--5--8----|--0--5--0--5--8----|
-------------------|-------------------|-----------------|-------------------|-------------------|
-------------------|-------------------|-----------------|-------------------|-------------------|
-------------------|-------------------|-----------------|-------------------|-------------------|
-------------------|-------------------|-----------------|-------------------|-------------------|

--5----------------|-----------------|--------------5-----|--------------5----|--7--5--------5----|
-----8--7--5--5----|-----------------|--4--7--4--7-----7--|--4--7--4--7-------|--------8--7-------|
-------------------|--8--7--8--------|--------------------|-------------------|-------------------|
-------------------|-----------------|--------------------|-------------------|-------------------|
-------------------|-----------------|--------------------|-------------------|-------------------|
-------------------|-----------------|--------------------|-------------------|-------------------|

-----------------|-------5----7--5--|--------5-----------|--------------------|-----------------|
--8--7--8--------|--8---------------|--8--7-----8--7--5--|--8--7--5-----5--7--|--5--4-----------|
-----------------|------------------|--------------------|-----------8--------|--------4--------|
-----------------|------------------|--------------------|--------------------|-----------------|
-----------------|------------------|--------------------|--------------------|-----------------|
-----------------|------------------|--------------------|--------------------|-----------------|

------11------11--14----|------11------11--14----|------11------11--14----|--------------------|
--12------12------------|--12------12------------|--12------12------------|--17--16--17--------|
------------------------|------------------------|------------------------|--------------------|
------------------------|------------------------|------------------------|--------------------|
------------------------|------------------------|------------------------|--------------------|
------------------------|------------------------|------------------------|--------------------|

------12------12--15----|------12------12--15----|--17--15--14------------|--------------------|
--12------12------------|--12------12------------|--------------17--17----|--15--14--15--------|
------------------------|------------------------|------------------------|--------------------|
------------------------|------------------------|------------------------|--------------------|
------------------------|------------------------|------------------------|--------------------|
------------------------|------------------------|------------------------|--------------------|

------14------14--17--14--|------14------14--17----|--19--17--15------17----|--15--14--15--------|
--15------15--------------|--15------15------------|--------------19--------|--------------------|
--------------------------|------------------------|------------------------|--------------------|
--------------------------|------------------------|------------------------|--------------------|
--------------------------|------------------------|------------------------|--------------------|
--------------------------|------------------------|------------------------|--------------------|

--15----17----19--17--|--15--14--17--15--14--12--|--15--14--12--11--14r---|----------12--11--|
----------------------|--------------------------|------------------------|------------------|
----------------------|--------------------------|------------------------|------------------|
----------------------|--------------------------|------------------------|------------------|
----------------------|--------------------------|------------------------|------------------|
----------------------|--------------------------|------------------------|------------------|
[ Tab from: http://www.guitartabs.cc/tabs/c/chingon/malaguena_salerosa_tab_ver_2.html ]
----------------|-----------------------------|-----------------------------|---------------|------|
--12------------|-----------------------------|-----------------------------|---------------|------|
----------------|-----------------------------|-----------------------------|---------------|------|
----------------|-----------------------------|-----------------------------|---------------|------|
----------------|-----------------------------|-----------------------------|---------------|------|
----------------|--7--7--7--8--8--8--7--7--7--|--5--5--5--3--3--3--2--2--2--|--0------------|------|

------|----------------|---------------|-----------------|-----------------|------------------12--|
------|----------------|---------------|--------5--5--4--|--5--7--8--------|--------------12------|
------|----------------|---------------|-----------------|-----------------|----------12----------|
------|----------------|---------------|-----------------|-----------------|----------------------|
------|----------7--6--|--7------------|-----------------|-----------------|----------------------|
------|----------------|---------------|-----------------|-----------------|----------------------|


Verse 2:


Same chords, different riffs

Riff #1

|--------7--7--8--|--10--8-10-7--8--7--8--|
|-----------------|-----------------------|
|-----------------|-----------------------|
|-----------------|-----------------------|
|-----------------|-----------------------|
|-----------------|-----------------------|

--11--8-11-7--8--7--8--|--7------------|
-----------------------|---------------|
-----------------------|---------------|
-----------------------|---------------|
-----------------------|---------------|
-----------------------|---------------|

Riff #2

--------7-7-7--6--|--7--8--7--6--7--8--|--7----------12--|--11------------|
------------------|--------------------|-----------------|----------------|
------------------|--------------------|-----------------|----------------|
------------------|--------------------|-----------------|----------------|
------------------|--------------------|-----------------|----------------|
------------------|--------------------|-----------------|----------------|


Prechorus:
Same Chords.


Chorus:
Same Chords, different riff that builds up to the chorus:

--------12------14--|------15------14------12--|------14------15------17--|
------------12------|--12------12------12------|--12------12------12------|
--------------------|--------------------------|--------------------------|
--------------------|--------------------------|--------------------------|
--------------------|--------------------------|--------------------------|
--------------------|--------------------------|--------------------------|

------15------14------12--|------14------15------14--|------12------14------15--|
--12------12------12------|--12------12------12------|--12------12------12------|
--------------------------|--------------------------|--------------------------|
--------------------------|--------------------------|--------------------------|
--------------------------|--------------------------|--------------------------|
--------------------------|--------------------------|--------------------------|
                                        Que eres  lin
------17------15------14--|------12------12------|--12------------|--12----14--14----14--|
--12------12------12------|--12------12----------|----------------|----------------------|
--------------------------|----------------------|----------------|----------------------|
--------------------------|----------------------|----------------|----------------------|
--------------------------|----------------------|----------------|----------------------|
--------------------------|----------------------|----------------|----------------------|

--15--------14--14--|--12----12--14------|--15--------14----|--12--------14----|--15--------14----|
--------------------|--------------------|------------------|------------------|------------------|
--------------------|--------------------|------------------|------------------|------------------|
--------------------|--------------------|------------------|------------------|------------------|
--------------------|--------------------|------------------|------------------|------------------|
--------------------|--------------------|------------------|------------------|------------------|

--12--------14----|--------------------------|--------------------------------------|
------------------|--8-8-8-8-8-8-8-8-8-8-8-8-|--11-11-11-11-11-11-11-11-11-11-11-11-|
------------------|--------------------------|--------------------------------------|
------------------|--------------------------|--------------------------------------|
------------------|--------------------------|--------------------------------------|
------------------|--------------------------|--------------------------------------|

--------------------------------------|--12-12-12-12-12-12-12-12-12-12-12-12-|
--12-12-12-12-12-12-12-12-12-12-12-12-|--------------------------------------|
--------------------------------------|--------------------------------------|
--------------------------------------|--------------------------------------|
--------------------------------------|--------------------------------------|
--------------------------------------|--------------------------------------|

--14-14-14-14-14-14-14-14-14-14-14-14-|--15-15-15-15-15-15-15-15-15-15-15-15-|
--------------------------------------|--------------------------------------|
--------------------------------------|--------------------------------------|
--------------------------------------|--------------------------------------|
--------------------------------------|--------------------------------------|
--------------------------------------|--------------------------------------|
                                                                da y hechicera
--17-17-17-17-17-17-17-17-17-17-17-17-|--19-19-19-19-19-19-19-19-19-19-19-19-|--22r-------20----|
--------------------------------------|--------------------------------------|------------------|
--------------------------------------|--------------------------------------|------------------|
--------------------------------------|--------------------------------------|------------------|
--------------------------------------|--------------------------------------|------------------|
--------------------------------------|--------------------------------------|------------------|

              Que eres linda y hechicera                           Como el candor de una rosa
--19~-----------|--17~-----------|--15b----15b---15~--|--17~-----------|--17r-------17--15--|
----------------|----------------|--------------------|----------------|--------------------|
----------------|----------------|--------------------|----------------|--------------------|
----------------|----------------|--------------------|----------------|--------------------|
----------------|----------------|--------------------|----------------|--------------------|
----------------|----------------|--------------------|----------------|--------------------|

--14~-----------|
----------------|
----------------|
----------------|
----------------|
----------------|

Outro:

Over Em chord

|------------8--|--11--8-11-8--7--8--7--|
|---------------|-----------------------|
|---------------|-----------------------|
|---------------|-----------------------|
|---------------|-----------------------|
|---------------|-----------------------|

--6--7----------|------|------|-----------------------|----|------|------|------|------|------|
----------------|------|------|-----------------------|----|------|------|------|------|------|
----------------|------|------|-----------------------|----|------|------|------|------|------|
----------------|------|------|--4-2-0----------------|----|------|------|------|------|------|
----------------|------|------|--------3-2-0----------|----|------|------|------|------|------|
----------------|------|------|--------------3-2-0----|----|------|------|------|------|------|

------|------|--10--8--7--8--7--8--|--7------------|------|----------------|--------------------|
------|------|---------------------|---------------|------|----------------|--------------------|
------|------|---------------------|---------------|------|----------4--3--|--4--5--4--3--4--5--|
------|------|---------------------|---------------|------|----------------|--------------------|
------|------|---------------------|---------------|------|----------------|--------------------|
------|------|---------------------|---------------|------|----------------|--------------------|

---------------|--------------|--------------|------||
---------------|--------------|--------------|------||
--4------------|--------------|--------------|------||
---------------|--------------|--------------|------||
---------------|--------------|--------------|------||
---------------|--------------|--------------|------||

Guitar 2:

Intro Riff:

E||--------------5----|--------------5----|--------------5----|-----------------|
B||--4--7--4--7-------|--4--7--4--7-------|--4--7--4--7-------|--8--7--8--------|
G||-------------------|-------------------|-------------------|-----------------|
D||-------------------|-------------------|-------------------|-----------------|
A||-------------------|-------------------|-------------------|-----------------|
E||-------------------|-------------------|-------------------|-----------------|

--------------7----|--------------7----|--8--7--5----------|-----------------|-----5-----5--8--5--|
--5--8--5--8-------|--5--8--5--8-------|-----------8--8----|--7--6--7--------|--7-----7-----------|
-------------------|-------------------|-------------------|-----------------|--------------------|
-------------------|-------------------|-------------------|-----------------|--------------------|
-------------------|-------------------|-------------------|-----------------|--------------------|
-------------------|-------------------|-------------------|-----------------|--------------------|

-----5-----5--8----|--10--8--7------8----|--7--5--7--------|--7----8----10--8--|
--7-----7----------|------------10-------|-----------------|-------------------|
-------------------|---------------------|-----------------|-------------------|
-------------------|---------------------|-----------------|-------------------|
-------------------|---------------------|-----------------|-------------------|
-------------------|---------------------|-----------------|-------------------|

--7------8--7---------|--7-------------------|-----------------|--------------|------|------|
-----10--------10--8--|-----10--8--7--8/10---|--8--7-----------|--------------|------|------|
----------------------|----------------------|--------8--------|--------------|------|------|
----------------------|----------------------|-----------------|--------------|------|------|
----------------------|----------------------|-----------------|--------------|------|------|
----------------------|----------------------|-----------------|--------------|------|------|

When the song goes into the intro section once again, play this same intro riff twice.

Em
Que bonitos ojos tienes
                    Am
Debajo de esas dos cejas
                     D
Debajo de esas dos cejas
                   B7
Que bonitos ojos tienes.

 Em
Ellos me quieren mirar
                   Am
Pero si tu no los dejas
                    D
Pero si tu no los dejas
               B7
Ni siquiera parpadear.

 Em                         D
Que eres lin........da y hechicera,
                    G
Que eres linda y hechicera
                       B7
Como el candor de una rosa.

Em
Si por pobre me desprecias
               Am
Yo te concedo razon
                D
Yo te concedo razon
                  B7
Si por pobre me desprecias.

Em
Yo no te ofrezco riquezas
                Am
Te ofrezco mi corazon
                 D
Te ofrezco mi corazon
                 B7
A cambio de mi pobreza.

B7           Em
Malaguena salerosa
                   D
Besar tus labios quisiera
                   G
Besar tus labios quisiera.
            B7
Malaguena salerosa
                 Em
Y decirte nina hermosa.

Em                          D
Que eres lin........da y hechicera,
                    G
Que eres linda y hechicera
                       B7
Como el candor de una rosa.
                 Em      Em
Y decirte nina hermosa.
Comments