Chingon - Malaguena Salerosa Chords & Tabs

 

Malaguena Salerosa Chords & Tabs

Chingon Chords & Tabs

Version: 1 Type: Tab 0 ratings
1 star 2 stars 3 stars 4 stars 5 stars
comments

Malaguena Salerosa Tab

   
		     Malaguena Salerosa- "Chingon" Del Castillo
                        As from the Kill Bill Volume 2 Soundtrack
                         Intro and Solo are the same.
-------------------------------------------------------------------------------
Tabbed by: Barela
Email: mariache6@hotmail.com

Tuning: Standard     key of E minor   Chords Em Am D B7  Chorus D G B7 Em

E|---------------------------------------------------------------------|
B|------7-----7---10~-----7-----7---10~-----7-----7---10-----8-7-8~~~--|
G|---8-----8-----------8-----8-----------8-----8-----------------------|
D|---------------------------------------------------------------------|
A|---------------------------------------------------------------------|
E|---------------------------------------------------------------------|

e|----------------7~-----------------7~---7--8--7-----------------------|
B|------8----8-------------8-----8------------------10----8\10-7-8-7~~-|
G|---9-----9------------9-----9-----------------------------------------|
D|----------------------------------------------------------------------|
A|----------------------------------------------------------------------|
E|----------------------------------------------------------------------|
[ Tab from: http://www.guitartabs.cc/tabs/c/chingon/malaguena_salerosa_tab.html ]
e|------5-----5---8~-------5-----5---8~-----5--8-5--8\10--87h87~~~--|
B|---7-----7------------7-----7----------------------------------------|
G|---------------------------------------------------------------------|
D|---------------------------------------------------------------------|
A|---------------------------------------------------------------------|
E|---------------------------------------------------------------------|
    Rundown
e|---7--8------10-8-7----8-7------7------------------------------------|
B|--------------------10-----10-8---10-8-7----10-----8-7---------------|
G|-------------------------------------------------------8~~~~---------|
D|---------------------------------------------------------------------|
A|---------------------------------------------------------------------|
E|---------------------------------------------------------------------|
   Play each rapidly a few times                               one time
e|---7-----------5-----------2------------3------------------------0+--|
B|---8-----------7-----------4------------5------------------------0+--|
G|---------------------------------------------------------------------|
D|---------------------------------------------------------------------|
A|---------------------------------------------------------------------|
E|---------------------------------------------------------------------|

e|---------------------7~~--------------12~~---------------------------|
B|------5~~--------5----------------12---------------------------------|
G|---4-----------------------------------------------------------------|
D|---------------------------------------------------------------------|
A|---------------------------------------------------------------------|
E|---------------------------------------------------------------------|
| /  slide up
| \  slide down
| h  hammer-on
| p  pull-off
| ~  vibrato
| +  harmonic
| x  Mute note
===============================================================================
Comments