Chingon - Alacran Y Pistolero Chords & Tabs

 

Alacran Y Pistolero Chords & Tabs

Chingon Chords & Tabs

Version: 1 Type: Tab 0 ratings
1 star 2 stars 3 stars 4 stars 5 stars
comments

Alacran Y Pistolero Tab

   
-----------------------------------------------------------------------------
     CHINGON - Alacran Y Pistolero
-----------------------------------------------------------------------------
Tabbed by: Aziz
Tuning: Standard

Intro for the song Antonio Banderas teaches to the little boy in Desperado.

[ Tab from: http://www.guitartabs.cc/tabs/c/chingon/alacran_y_pistolero_tab.html ]
  Em          Am    B7          Em
e---------0-----------------2---0-----|
B-0-----0---0-1-----0-----0---0---0---|
G-----0---------2-------2-----------0-|
D---0-------------2---1---------2-----|
A-2-----------0-----2-----------------|
E-------------------------------------|


  Em          Am     B7      Em
e---------0----------2-2-2-2-0--|
B-0-----0---0-1------0-0-0-0-0--|
G-----0---------2----2-2-2-2-0--|
D---0-------------2--1-1-1-1-2--|
A-2-----------0------2-2-2-2-2--|
E-------------------------------|
Comments