China Drum - Cant Stop These Things Chords & Tabs

 

Cant Stop These Things Chords & Tabs

China Drum Chords & Tabs

Version: 1 Type: Bass Tab 0 ratings
1 star 2 stars 3 stars 4 stars 5 stars
comments

Cant Stop These Things Bass Tab

               Bass Tab For Can't Stop These Things by China Drum
               From The Album 'Goosefair'

Intro:

G|-----------------------------------------------------------------|
D|-----------------------------------------------------------------|
A|---------------------------------1-1-1-1-1-1-1-1-1-1-1-1-1-1-1-1-|
E|-3-3-3-3-3-3-3-3-3-3-3-3-3-3-3-3---------------------------------|

G|-------------------------------------------------|
D|---------------------------------1-1-1-1-1-1-1-1-|
A|-3-3-3-3-3-3-3-3-3-3-3-3-3-3-3-3-----------------|
E|-------------------------------------------------|

Play the above and add this as an ending:
G|-------------|
D|---1---1-1---|
A|-3---3-----3-|
E|-------------|

Then play the intro again, but end with this:

G|------------|
D|-1--1-1-----|
A|--------3-2-|
E|------------|

Now on to the verse:
[ Tab from: http://www.guitartabs.cc/tabs/c/china_drum/cant_stop_these_things_btab.html ]
Verse:
G|-----------------------------------------------------------------|
D|-----------------------------------------------------------------|
A|-----------------1-1---------------------------------------------|
E|-3--3--3-3-3-3-3-----3--3--3-3-3-3-3-3-3-3-1--1--1-1-1-1-1-1-1-1-|

G|-----------------------|
D|-----------------------|
A|-----------------4-3-1-|
E|-3--3--3-3-3-3-3-------|

Now as the words I would have more sense....... are sung, the bass
plays this (similar to first verse riff)

G|------------------------------------------------------------------|
D|------------------------------------------------------------------|
A|---------------------------------------5-5-------------------5--5-|
E|-3--3--3-3-3--3--3-3-3-3--3--3-3-3-3-3-----1--1-1-1--1-1-1-1------|

G|--------------|
D|--------------|
A|-5-5-5--5-5-5-|
E|--------------|

Then on to the Chorus:

G|-------------------------------------------------------------------|
D|-------------------------------------------------------------------|
A|-6--6-6-5-4-3------------1-1-1-3-3-3--6--6-5-4-3------------1-1-1-1|
E|--------------3-3--3-3-3--------------------------3-3--3-3-3-------|

Repeat this twice for each Chorus.

Enjoy.
	 Questions, Comments, Criticisms to crbo@innotts.co.uk

Comments