Chimaira - Trimmed Chords & Tabs

 

Trimmed Chords & Tabs

Chimaira Chords & Tabs

Version: 1 Type: Tab 0 ratings
1 star 2 stars 3 stars 4 stars 5 stars
comments

Trimmed Tab

   
Band: Chimaira
Song: Trimmed

Tabber: John Cukras
AIM: Sanguinarylord

Tuning: C G C F A D

Riff 1:
D---------------------------------------------
A---------------------------------------------
F---------------------------------------------
C---------------------------------------------
G-0-0-0----3-2----7-6----5-4-5---------------0
C-0-0-0-00-3-2-00-7-6-00-5-4-5-00-- x's 4 ---0
pm. .   ..     ..     ..       .. 
[ Tab from: http://www.guitartabs.cc/tabs/c/chimaira/trimmed_tab.html ]
Riff 2: Part A                Part B                          Part C                           Part D
D--------------------|--------------------------------|--------------------------------|-----------------------------
A--------------------|--------------------------------|--------------------------------|-----------------------------
F--------------------|--------------------------------|--------------------------------|-----------------------------
C--------------------|--------------------------------|--------------------------------|-----------------------------
G-1-2-3-4-3-2--------|--111-222-333-444-333-222-------|--111-222-333-444-333-222-------|--1----2----3----4----333-222
C-1-2-3-4-3-2- x's 2-|--111-222-333-444-333-222 x's 2-|--111-222-333-444-333-222 x's 4-|--1-00-2-00-3-00-4-00-333-222 x's 8
pm. . . . . .           ... ... ... ... ... ...                                             ..   ..   ..   ..

Riff 1

Riff 3:
D------------------------------------------------------
A------------------------------------------------------
F------------------------------------------------------
C------------------------------------------------------
G------------------1-2-3-4-5----1----2----3----4----555
C-0000-1111 x's 6--1-2-3-4-5----1-00-2-00-3-00-4-00-555  x's 8
pm.... ....                       ..   ..   ..   ..

Riff 1

Riff 4:
D---------------------------------------
A---------------------------------------
F---------------------------------------
C---------------------------------------
G-------2-----3-4-5-4-3-----------------
C-00000-2-000-3-4-5-4-3 x's 11---000-000
pm.....   ...                    ... ...
Comments