Chimaira - The Dehumanizing Process Chords & Tabs

 

The Dehumanizing Process Chords & Tabs

Chimaira Chords & Tabs

Version: 4 Type: Tab 0 ratings
1 star 2 stars 3 stars 4 stars 5 stars
comments

The Dehumanizing Process Tab

   
Song: The Dehumanizing Process
Band: Chimaira
Tabbed by: Sendero Luminoso

CGCfad tuning

Key
v= downstroke
^= upstroke
*= palm mute
~= vibrato
/= slide up
\= slide down
b= bend
( )= non picked note
x= muted
.= repeat
.:| = volume increase

Intro  

Gtr.1 (Matt)

  v^v^v v^v^v etc.
d----------------------------------------------------------|
a----------------------------------------------------------|
f-88888-88888-88888-88888-88888-88888-88888-88888----------|
C-xxxxx-xxxxx-xxxxx-xxxxx-xxxxx-xxxxx-xxxxx-xxxxx--12\\\\\-|
G-66666-66666-66666-66666-66666-66666-66666-66666--12\\\\\-|
C--------------------------------------------------12\\\\\-|

Gtr. 2 (Rob)
   v^v^v v^v^v etc.
d|--------------------------------------------------------------------|
a|--------------------------------------------------------------------|
f|-88888-88888-1414141414-1515151515-1818181818-1717171717-1818181818-|
C|-xxxxx-xxxxx--x-x-x-x-x--x-x-x-x-x-=x-x-x-x-x--x-x-x-x-x--x-x-x-x-x-|
G|-66666-66666-1212121212-1313131313-1616161616-1515151515-1616161616-|
C|--------------------------------------------------------------------|

Gtr. 2
d|---------------------|
a|---------------------|
f|-2020202020----------|
C|--x-x-x-x-x--14\\\\\-|
G|-1818181818--14\\\\\-|
C|-------------14\\\\\-|


Both guitars                              4th measure           | Fill 1 |

   v v v v v v v v v v v v v v v v    3    v v v v v v v v v v v v v v v v
d|----------------------------------| T  d----------------------------------|
a|---------------------------------.| I  a----------------------------------|
f|----------------------------------| M  f----------------------------------|
C|---------4-------------4----------| E  C---------4-------------4---4---4--|
G|-0-1-3-0-2-3-2-0-1-3-0-2-3-2-0-1-.| S  G-0-1-3-0-2-3-2-0-1-3-0-2---2---2--|
C|-0-1-3-0---3-2-0-1-3-0---3-2-0-1--|    C-0-1-3-0---3-2-0-1-3-0---0---0----|
pm * * * *   * * * * * *   * * * *         * * * *   * * * * * *   *   *

(Play Twice)

Verse Both Guitars

d|-----------------------------------| 
a|-----------------------------------| 
f|-----------------------------------| 
C|---------4---------4-------4-------| 
G|---------2---------2-------2-------| 
C|-0-1-3-0-----1-3-0----3~-3----3~-2~| 
pm * * * *     * * *                              
                               
                                v^v^v^ v v
d|-----------------------------------------|
a|-----------------------------------------|
f|-----------------------------------------|
C|---------4---------4---------------------|
G|---------2---------2-----------------0-0-|
C|-0-1-3-0-----1-3-0-----3~-3-0-000000-0-0-|
pm * * * *     * * *            ****** * *  

d|-----------------------------------| 
a|-----------------------------------| 
f|-----------------------------------| 
C|---------4---------4-------4-------| 
G|---------2---------2-------2-------| 
C|-0-1-3-0-----1-3-0----3~-3----3~-2~| 
pm * * * *     * * *                   

d|---------------------------------------------------------|
a|---------------------------------------------------------|
f|---------------------------------------------------------|
C|---------4---------4--------4----------------------------|
G|---------2---------2--------2-0-7h10p7\6h9p6\5h8p5\4h7p4-|
C|-0-1-3-0-----1-3-0-----3~-3------------------------------|
pm * * * *     * * *                            

Chorus  (Matt & Rob)             Then this Fill (Matt)
d|-------------------------|   d|-------------------------|
a|------------------------.|   a|-------------------------|
f|-------------------------|   f|-------------------------|
C|-------------------------|   C|-------------------------|
G|------------------------.|   G|-------------------------|
C|-1/(6)-5-3-000000000000--|   C|-3/(9)-8-6-000000000000--|
pm           ************                   ************

4th measure (Matt & Rob)
d|-------------------------------------|
a|-------------------------------------|
f|-------------------------------------|
C|-------------------------------------| 
G|-----------7h10p7\6h9p6\5h8p5\4h7p4\-|  
C|-1/(6)-5-3---------------------------| 

Rob plays the chorus riff for first three measures
                                
(Matt & Rob)                     Then (Matt)
d|-------------------------|   d|-------------------------|
a|------------------------.|   a|-------------------------|
f|-------------------------|   f|-------------------------|
C|-------------------------|   C|-------------------------|
G|------------------------.|   G|-------------------------|
C|-1/(6)-5-3-000000000000--|   C|-3/(9)-8-6-000000000000--|
pm           ************                   ************


4th measure (Matt & Rob)
d|------------------------------------------------------------|
a|------------------------------------------------------------|
f|------------------------------------------------------------|
C|------------------------------------------------------------| 
G|-----------7h10p7\6h9p6\5h8p5\4h7p4\6h9p6\5h8p5\4h7p4\3h6p3-|  
C|-1/(6)-5-3--------------------------------------------------|

Rob plays the chorus riff for first three measures

Verse Both Guitars
d|-----------------------------------| 
a|-----------------------------------| 
f|-----------------------------------| 
C|---------4---------4-------4-------| 
G|---------2---------2-------2-------| 
C|-0-1-3-0-----1-3-0----3~-3----3~-2~| 
pm * * * *     * * *                              
                               
                                 v^v^v^v^v^v^
d|--------------------------------------------|
a|--------------------------------------------|
f|--------------------------------------------|
C|---------4---------4------------------------|
G|---------2---------2------------------------|
C|-0-1-3-0-----1-3-0-----3~-3-0--000000000000-|
pm * * * *     * * *             ************

d|-----------------------------------| 
a|-----------------------------------| 
f|-----------------------------------| 
C|---------4---------4-------4-------| 
G|---------2---------2-------2-------| 
C|-0-1-3-0-----1-3-0----3~-3----3~-2~| 
pm * * * *     * * *                     

d|----------------------------------------------------------|
a|----------------------------------------------------------|
f|----------------------------------------------------------|
C|---------4---------4--------4-----------------------------|
G|---------2---------2--------2--0-7h10p7\6h9p6\5h8p5\4h7p4-|
C|-0-1-3-0-----1-3-0-----3~-3-------------------------------|
pm * * * *     * * *                            

(Matt & Rob)                     Then (Matt)
d|-------------------------|   d|-------------------------|
a|------------------------.|   a|-------------------------|
f|-------------------------|   f|-------------------------|
C|-------------------------|   C|-------------------------|
G|------------------------.|   G|-------------------------|
C|-1/(6)-5-3-000000000000--|   C|-3/(9)-8-6-000000000000--|
pm           ************                   ************


4th measure (Matt & Rob)
d|-------------------------------------|
a|-------------------------------------|
f|-------------------------------------|
C|-------------------------------------| 
G|-----------7h10p7\6h9p6\5h8p5\4h7p4\-|  
C|-1/(6)-5-3---------------------------|
[ Tab from: http://www.guitartabs.cc/tabs/c/chimaira/the_dehumanizing_process_tab_ver_4.html ]
Rob plays the chorus riff for first three measures

(Matt & Rob)                     Then (Matt)
d|-------------------------|   d|-------------------------|
a|------------------------.|   a|-------------------------|
f|-------------------------|   f|-------------------------|
C|-------------------------|   C|-------------------------|
G|------------------------.|   G|-------------------------|
C|-1/(6)-5-3-000000000000--|   C|-3/(9)-8-6-000000000000--|
pm           ************                   ************

4th measure (Matt & Rob)
d|------------------------------------------------------------|
a|------------------------------------------------------------|
f|------------------------------------------------------------|
C|------------------------------------------------------------| 
G|-----------7h10p7\6h9p6\5h8p5\4h7p4\6h9p6\5h8p5\4h7p4\3h6p3-|  
C|-1/(6)-5-3--------------------------------------------------|

Rob plays the chorus riff for first three measures

2:04-2:25
Guitar 1 (Matt)
   v^v^v v^v^v etc.
d|---------------------------------------------------------|
a|---------------------------------------------------------|
f|-88888-88888-88888-88888-88888-88888-88888-88888---------|
C|-xxxxx-xxxxx-xxxxx-xxxxx-xxxxx-xxxxx-xxxxx-xxxxx--12\\\\\|
G|-66666-66666-66666-66666-66666-66666-66666-66666--12\\\\\|
C|--------------------------------------------------12\\\\\|
Guitar 2 (Rob)
   v^v^v v^v^v etc.
d|--------------------------------------------------------------------|
a|--------------------------------------------------------------------|
f|-88888-88888-1414141414-1515151515-1818181818-1717171717-1818181818-|
C|-xxxxx-xxxxx--x-x-x-x-x--x-x-x-x-x--x-x-x-x-x--x-x-x-x-x--x-x-x-x-x-|
G|-66666-66666-1212121212-1313131313-1616161616-1515151515-1616161616-|
C|--------------------------------------------------------------------|

d|---------------------|
a|---------------------|
f|-2020202020----------|
C|--x-x-x-x-x--14\\\\\-|
G|-1818181818--14\\\\\-|
C|-------------14\\\\\-|


Both Guitars 
   v^v^v v v  v^v^v  v^ v^v
d|---------------------------| 8   
a|--------------------------.| t
f|-88888------88888--88/999--| i
C|-xxxxx------xxxxx--xx/xxx--| m
G|-66666-0-0--66666--66/777-.| e
C|-------0-0-----------------| s
pm       * *

2:47-2:57
Guitar 1 (Matt)
d|---------| 4 
a|--------.| t Progressive slow bend on the last note then release.
f|-88888b--| i
C|-xxxxx---| m
G|-66666b-.| e 
C|---------| s
Guitar 2 (Rob)
   v^v^v  v v  v^v^v  v^ v^v
d|----------------------------|4   
a|---------------------------.|t 
f|-88888-------88888--88/999--|i 
C|-xxxxx-------xxxxx--xx/xxx--|m 
G|-66666--0-0--66666--66/777-.|e 
C|--------0-0-----------------|s 
pm        * *

2:58-3:08
Guitar 1 (Matt)
d|-----------------------------------|  
a|-----------------------------------|  
f|-88888-88888-88888-88888-12\\\\\(1)|  
C|-xxxxx-xxxxx-xxxxx-xxxxx-12\\\\\(1)|  
G|-66666-66666-88888-66666-12\\\\\(1)|  
C|-----------------------------------| 
Guitar 2 (Rob)
d|----------------------------------------|  
a|----------------------------------------|  
f|-88888-88888-1414141414-88888-12\\\\\(1)|  
C|-xxxxx-xxxxx--x-x-x-x-x-xxxxx-12\\\\\(1)|  
G|-66666-66666-1212121212-66666-12\\\\\(1)|  
C|-----------------------------------|  


Guitar 2 (Rob)
   v v v v v v v v v v v v v v   
d|-----------------------------| 
a|-----------------------------|
f|-----------------------------| 
C|---------4-------------4-----|
G|-0-1-3-0-2-3-2-0-1-3-0-2-3-2-| 
C|-0-1-3-0---3-2-0-1-3-0---3-2-|
pm * * * *   * * * * * *   * *      

Both guitars                              4th measure           | Fill 1 |

   v v v v v v v v v v v v v v v v    3    v v v v v v v v v v v v v v v v
d|----------------------------------| T  d----------------------------------|
a|---------------------------------.| I  a----------------------------------|
f|----------------------------------| M  f----------------------------------|
C|---------4-------------4----------| E  C---------4-------------4---4---4--|
G|-0-1-3-0-2-3-2-0-1-3-0-2-3-2-0-1-.| S  G-0-1-3-0-2-3-2-0-1-3-0-2---2---2--|
C|-0-1-3-0---3-2-0-1-3-0---3-2-0-1--|    C-0-1-3-0---3-2-0-1-3-0---0---0----|
pm * * * *   * * * * * *   * * * *         * * * *   * * * * * *   *   *

Both guitars       

   v v v v v v v v v v v v v v v v    4
d|----------------------------------| T
a|---------------------------------.| I  
f|----------------------------------| M  
C|---------4-------------4----------| E  
G|-0-1-3-0-2-3-2-0-1-3-0-2-3-2-0-1-.| S  
C|-0-1-3-0---3-2-0-1-3-0---3-2-0-1--|    
pm * * * *   * * * * * *   * * * *  

d|---------------------------------------------------|
a|--------------------------------------------------.|
f|---------------------------------------------------| 
C|---------------------------------------------------|
G|-7h10p7\6h9p6\5h8p5\4h7p4\6h9p6\5h8p5\4h7p4\3h6p3-.|
C|---------------------------------------------------|

d|------------------------------| 
a|------------------------------| 
f|------------------------------| 
C|------------------------------|
G|------------------------------|  
C|-1/(6)---------1/(6)---5---3~-| 

(Matt & Rob)                     Then (Matt)
d|-------------------------|   d|-------------------------|
a|------------------------.|   a|-------------------------|
f|-------------------------|   f|-------------------------|
C|-------------------------|   C|-------------------------|
G|------------------------.|   G|-------------------------|
C|-1/(6)-5-3-000000000000--|   C|-1/(6)-8-9-000000000000--|
pm           ************                   ************
 
4th measure (Matt)                      
d|-------------------------------------|
a|-------------------------------------|
f|-------------------------------------|
C|-------------------------------------| 
G|-----------7h10p7\6h9p6\5h8p5\4h7p4\-|  
C|-1/(6)-8-9---------------------------| 

4th measure (Rob)
d|-------------------------------------|
a|-------------------------------------|
f|-------------------------------------|
C|-------------------------------------| 
G|-----------7h10p7\6h9p6\5h8p5\4h7p4\-|  
C|-1/(6)-5-3---------------------------| 

Rob plays the chorus riff for first three measures

  
(Matt & Rob)                     Then (Matt)
d|-------------------------|   d|-------------------------|
a|------------------------.|   a|-------------------------|
f|-------------------------|   f|-------------------------|
C|-------------------------|   C|-------------------------|
G|------------------------.|   G|-------------------------|
C|-1/(6)-5-3-000000000000--|   C|-3/(9)-8-6-000000000000--|
   .:|       ************                   ************

4th measure (Matt & Rob)
d|------------------------------------------------------------|
a|------------------------------------------------------------|
f|------------------------------------------------------------|
C|------------------------------------------------------------| 
G|-----------7h10p7\6h9p6\5h8p5\4h7p4\6h9p6\5h8p5\4h7p4\3h6p3-|  
C|-1/(6)-5-3--------------------------------------------------| 

Rob plays the chorus riff for first three measures

Both Guitars
d|---------------------| 
a|---------------------| 
f|---------------------|  
C|---------------------| 
G|------------------0--| 
C|-1/(6)-5-3-000000-0--|
pm           ******     

The end. (Finally)
Comments