Chimaira - The Dehumanizing Process Chords & Tabs

 

The Dehumanizing Process Chords & Tabs

Chimaira Chords & Tabs

Version: 3 Type: Tab 0 ratings
1 star 2 stars 3 stars 4 stars 5 stars
comments

The Dehumanizing Process Tab

   
SUBMITTED BY: SK!NG3

Tuning: CDCFAD (Drop C)

Im sick of people playin da main riff frm dis song rong. Iv watched matt play it and am 
damn sure dat dis is how it goes:

     D --------------------------------------|
     A --------------------------------------|
     F --------------------------------------|
     C 0-1-3-2-4-3-2-1-0-2-3-4-0-3-0-1-------|
     G 0-1-3-2-2-3-2-1-0-2-3-2-0-3-0-1-------|
     C 0-1-3-2---3-2-1-0-2-3---0-3-0-1-------|
P.M.   . . . .   . . . . . .   . . . .

The rest:

Intro:
gtr. 1 plays this all da way thru:

D ---------------|
A ---------------|
F ---------------|
C ---------------|
G 5555555~~~~----|
C ---------------|

gtr. 2 plays dis ova da top:

D ------------------------------------------------------------------------|
A ------------------------------------------------------------------------|
F ------------------------------------------------5555555~~~~-4444444~~~~-|
C ------------------------6666666~~~~-7777777~~~~-------------------------|
G 5555555~~~~-5555555~~~~-------------------------------------------------|
C ------------------------------------------------------------------------|

D --------------------------------|
A --------------------------------|
F 5555555~~~~-7777777~~~~---------|
C --------------------------------|
G --------------------------------|
C --------------------------------|

Main riff:

     D --------------------------------------}
     A --------------------------------------}
     F --------------------------------------}
     C 0-1-3-2-4-3-2-1-0-2-3-4-0-3-0-1-------} X3
     G 0-1-3-2-2-3-2-1-0-2-3-2-0-3-0-1-------}
     C 0-1-3-2---3-2-1-0-2-3---0-3-0-1-------}
P.M.   . . . .   . . . . . .   . . . .

     D --------------------------------------|
     A --------------------------------------|
     F --------------------------------------|
     C 0-1-3-2-4-3-2-1-0-2-3-4-4-4-----------|
     G 0-1-3-2-2-3-2-1-0-2-3-2-2-2-----------|
     C 0-1-3-2---3-2-1-0-2-3-----------------|
P.M.   . . . .   . . . . . .


Verse riff:

     D -----------------------------------------|
     A -----------------------------------------|
     F -----------------------------------------|
     C 0-3-2-0-4---3-2-0-4-----.--------.-------|
     G 0-3-2-0-2---3-2-0-2-----1--------1-------|
     C 0-3-2-0-----3-2-0-----3b----3b-----1v----|
P.M.   . . . .     . . .

     D -----------------------------------------|
     A -----------------------------------------|
     F -----------------------------------------|
     C 0-3-2-0-4---3-2-0-4-----.----------------|
     G 0-3-2-0-2---3-2-0-2-----1----------------|
     C 0-3-2-0-----3-2-0-----3b----0000000-0----|
P.M.   . . . .     . . .           ....... .

     D -----------------------------------------|
     A -----------------------------------------|
     F -----------------------------------------|
     C 0-3-2-0-4---3-2-0-4-----.--------.-------|
     G 0-3-2-0-2---3-2-0-2-----1--------1-------|
     C 0-3-2-0-----3-2-0-----3b----3b-----1v----|
P.M.   . . . .     . . .

     D -----------------------------------------------------------------|
     A -----------------------------------------------------------------|
     F -----------------------------------------------------------------|
     C 0-3-2-0-4---3-2-0-4--------------5h-8p-5-4h-7p-4-3h-6p-3-2h-5p-2-|
     G 0-3-2-0-2---3-2-0-2-----1----------------------------------------|
     C 0-3-2-0-----3-2-0-----3b----/12\---------------------------------|
P.M.   . . . .     . . .

Chorus riff:

     D -----------------------}    ------------------------------------------|
     A -----------------------}    ------------------------------------------|
     F -----------------------}    ------------------------------------------|
     C -----------------------} X3 ----------5h-8p-5-4h-7p-4-3h-6p-3-2h-5p-2-|
     G -----------------------}    ------------------------------------------|
     C /6v~~-5-3-000000000000-}    /6v~~ 5-3---------------------------------|
P.M.             ............

     D -----------------------}    ------------------------------------------|
     A -----------------------}    ------------------------------------------|
     F -----------------------}    ------------------------------------------|
     C -----------------------} X3 ----------5h-8p-5-4h-7p-4-3h-6p-3-2h-5p-2-|
     G -----------------------}    ------------------------------------------|
     C /6v~~-5-3-000000000000-}    /6v~~ 5-3---------------------------------|
P.M.             ............

D --------------------------------|
A --------------------------------|
F --------------------------------|
C --------------------------------|
G 5h-8p-5-4h-7p-4-3h-6p-3-2h-5p-2-|
C --------------------------------|

Verse riff:

     D -----------------------------------------|
     A -----------------------------------------|
     F -----------------------------------------|
     C 0-3-2-0-4---3-2-0-4-----.--------.-------|
     G 0-3-2-0-2---3-2-0-2-----1--------1-------|
     C 0-3-2-0-----3-2-0-----3b----3b-----1v----|
P.M.   . . . .     . . .

     D --------------------------------------------|
     A --------------------------------------------|
     F --------------------------------------------|
     C 0-3-2-0-4---3-2-0-4-----.-------------------|
     G 0-3-2-0-2---3-2-0-2-----1-------------------|
     C 0-3-2-0-----3-2-0-----3b----000000000000----|
P.M.   . . . .     . . .           ............

     D -----------------------------------------|
     A -----------------------------------------|
     F -----------------------------------------|
     C 0-3-2-0-4---3-2-0-4-----.--------.-------|
     G 0-3-2-0-2---3-2-0-2-----1--------1-------|
     C 0-3-2-0-----3-2-0-----3b----3b-----1v----|
P.M.   . . . .     . . .

     D -----------------------------------------------------------------|
     A -----------------------------------------------------------------|
     F -----------------------------------------------------------------|
     C 0-3-2-0-4---3-2-0-4--------------5h-8p-5-4h-7p-4-3h-6p-3-2h-5p-2-|
     G 0-3-2-0-2---3-2-0-2-----1----------------------------------------|
     C 0-3-2-0-----3-2-0-----3b----/12\---------------------------------|
P.M.   . . . .     . . .

Chorus riff:
[ Tab from: http://www.guitartabs.cc/tabs/c/chimaira/the_dehumanizing_process_tab_ver_3.html ]
     D -----------------------}    ------------------------------------------|
     A -----------------------}    ------------------------------------------|
     F -----------------------}    ------------------------------------------|
     C -----------------------} X3 ----------5h-8p-5-4h-7p-4-3h-6p-3-2h-5p-2-|
     G -----------------------}    ------------------------------------------|
     C /6v~~-5-3-000000000000-}    /6v~~ 5-3---------------------------------|
P.M.             ............

     D -----------------------}    ------------------------------------------|
     A -----------------------}    ------------------------------------------|
     F -----------------------}    ------------------------------------------|
     C -----------------------} X3 ----------5h-8p-5-4h-7p-4-3h-6p-3-2h-5p-2-|
     G -----------------------}    ------------------------------------------|
     C /6v~~-5-3-000000000000-}    /6v~~ 5-3---------------------------------|
P.M.             ............
D --------------------------------|
A --------------------------------|
F --------------------------------|
C --------------------------------|
G 5h-8p-5-4h-7p-4-3h-6p-3-2h-5p-2-|
C --------------------------------|

Intro:
gtr. 1 plays this all da way thru:

D ---------------|
A ---------------|
F ---------------|
C ---------------|
G 5555555~~~~----|
C ---------------|

gtr. 2 plays dis ova da top:

D ------------------------------------------------------------------------|
A ------------------------------------------------------------------------|
F ------------------------------------------------5555555~~~~-4444444~~~~-|
C ------------------------6666666~~~~-7777777~~~~-------------------------|
G 5555555~~~~-5555555~~~~-------------------------------------------------|
C ------------------------------------------------------------------------|

D --------------------------------|
A --------------------------------|
F 5555555~~~~-7777777~~~~---------|
C --------------------------------|
G --------------------------------|
C --------------------------------|

Bridge:

     D -----------------------------------------}
     A -----------------------------------------}
     F -----------------------------------------}
     C -----------------------------------------} X 12
     G -----------------------------------------}
     C 1212121212-0-0-1212121212-1212121212b(13)}
P.M.              . .

Intro:
gtr. 1 plays this all da way thru:

D ---------------|
A ---------------|
F ---------------|
C ---------------|
G 5555555~~~~----|
C ---------------|

gtr. 2 plays dis ova da top:

D ------------------------------------------------------------------------|
A ------------------------------------------------------------------------|
F ------------------------------------------------5555555~~~~-4444444~~~~-|
C ------------------------6666666~~~~-7777777~~~~-------------------------|
G 5555555~~~~-5555555~~~~-------------------------------------------------|
C ------------------------------------------------------------------------|

D --------------------------------|
A --------------------------------|
F 5555555~~~~-7777777~~~~---------|
C --------------------------------|
G --------------------------------|
C --------------------------------|

Interlude:

     D --------------------------------------|
     A --------------------------------------|
     F --------------------------------------|
     C 0-1-3-2-4-3-2-1-0-2-3-4-0-3-0-1-------|
     G 0-1-3-2-2-3-2-1-0-2-3-2-0-3-0-1-------|
     C 0-1-3-2---3-2-1-0-2-3---0-3-0-1-------|
P.M.   . . . .   . . . . . .   . . . .

Main riff:

     D --------------------------------------}
     A --------------------------------------}
     F --------------------------------------}
     C 0-1-3-2-4-3-2-1-0-2-3-4-0-3-0-1-------} X3
     G 0-1-3-2-2-3-2-1-0-2-3-2-0-3-0-1-------}
     C 0-1-3-2---3-2-1-0-2-3---0-3-0-1-------}
P.M.   . . . .   . . . . . .   . . . .

     D --------------------------------------|
     A --------------------------------------|
     F --------------------------------------|
     C 0-1-3-2-4-3-2-1-0-2-3-4-4-4-----------|
     G 0-1-3-2-2-3-2-1-0-2-3-2-2-2-----------|
     C 0-1-3-2---3-2-1-0-2-3-----------------|
P.M.   . . . .   . . . . . .

Main riff:

     D --------------------------------------}
     A --------------------------------------}
     F --------------------------------------}
     C 0-1-3-2-4-3-2-1-0-2-3-4-0-3-0-1-------} X4
     G 0-1-3-2-2-3-2-1-0-2-3-2-0-3-0-1-------}
     C 0-1-3-2---3-2-1-0-2-3---0-3-0-1-------}
P.M.   . . . .   . . . . . .   . . . .

Interlude:

D ----------------------------------------------------------------}
A ----------------------------------------------------------------}
F ----------------------------------------------------------------}
C 5h-8p-5-4h-7p-4-3h-6p-3-2h-5p-2---------------------------------}X2
G --------------------------------5h-8p-5-4h-7p-4-3h-6p-3-2h-5p-2-}
C ----------------------------------------------------------------}

Interlude:

D ----------------|
A ----------------|
F ----------------|
C ----------------|
G ----------------|
C /6~~~~-/6~~-5-3-|

Chorus riff:

     D -----------------------}    ------------------------------------------|
     A -----------------------}    ------------------------------------------|
     F -----------------------}    ------------------------------------------|
     C -----------------------} X3 ----------5h-8p-5-4h-7p-4-3h-6p-3-2h-5p-2-|
     G -----------------------}    ------------------------------------------|
     C /6v~~-5-3-000000000000-}    /6v~~ 5-3---------------------------------|
P.M.             ............
     D -----------------------}    ------------------------------------------|
     A -----------------------}    ------------------------------------------|
     F -----------------------}    ------------------------------------------|
     C -----------------------} X3 ----------5h-8p-5-4h-7p-4-3h-6p-3-2h-5p-2-|
     G -----------------------}    ------------------------------------------|
     C /6v~~-5-3-000000000000-}    /6v~~ 5-3---------------------------------|
P.M.             ............
D --------------------------------|
A --------------------------------|
F --------------------------------|
C --------------------------------|
G 5h-8p-5-4h-7p-4-3h-6p-3-2h-5p-2-|
C --------------------------------|

Coda:

     D -----------------|
     A -----------------|
     F -----------------|
     C ---------------0-|
     G ---------------0-|
     C /6~~-5-3-0000000-|
P.M.            ......
Comments