Chimaira - The Dehumanizing Process Chords & Tabs

 

The Dehumanizing Process Chords & Tabs

Chimaira Chords & Tabs

Version: 1 Type: Bass Tab 0 ratings
1 star 2 stars 3 stars 4 stars 5 stars
comments

The Dehumanizing Process Bass Tab

Tabbed By : Mike Antoch
e-mail: Sodaman34@aol.com

Tuning: drop c cgcf (this band may use drop c# or even drop b but i tuned it for c)

you figure out the amount of times each is played

intro (bass plays this the whole intro)
G|--------------------------------------------------------------------------|
D|--------------------------------------------------------------------------|
A|66666---------------------------------------------------------------------|
E|--------------------------------------------------------------------------|

main riff (x whatever)
G|--------------------------------------------------------------------------|
D|--------------------------------------------------------------------------|
A|----2------2-------2------2-------2------2-------2------2-2-2-------------|
E|0130-321010-3210130-321010-3210130-321010-3210130-321010------------------|

verse(x whatever)
G|--------------------------------------------------------------------------|
D|--------------------------------------------------------------------------|
A|----2---2-----------------------------------------------------------------|
E|0130-000--33-31-----------------------------------------------------------|
[ Tab from: http://www.guitartabs.cc/tabs/c/chimaira/the_dehumanizing_process_btab.html ]
chorus(x whatever)
G|--------------------------------------------------------------------------|
D|--------------------------------------------------------------------------|
A|--------------------------------------------------------------------------|
E|6-5-3-00000000------------------------------------------------------------|

verse again

chorus again

first breakdown(x whatever)
G|--------------------------------------------------------------------------|
D|--------------------------------------------------------------------------|
A|6--666^6------------------------------------------------------------------|
E|-00-----------------------------------------------------------------------|

there are some fills through out this song that im not sure if the bass play or not, but 
they are
G|--------------------------------------------------------------------------|
D|--------------------------------------------------------------------------|
A|5h8-4h7-3h6-2h5----(4h7-3h6-2h5-1h4)--------------------------------------|
E|--------------------------------------------------------------------------|
the one is parentheses is only played at the end of the song at a certain part.  you can 
it out.

play the main riff for the second breakdown ("bury my dreams i will bury you!)

um thats the whole song. its a really good song. deafinatly one of my favorites by this 
have fun. this is not really hard to play, but start off and build speed because those 
fills and the main riff are played relativly fast. peace out people
Comments