Chimaira - Stigmurder Chords & Tabs

 

Stigmurder Chords & Tabs

Chimaira Chords & Tabs

Version: 1 Type: Tab 0 ratings
1 star 2 stars 3 stars 4 stars 5 stars
comments

Stigmurder Tab

   
Song: Stigmurder
Artist: Chimaria
Album: The Impossiblity of Reason
Tabbed by: Christian / silent_warrior_@hotmail.com

PM - Palm mute
p - Pull off
h - Hammer on
(4^) - Pinch Harmonic and bend
\ - Slide down
/ - Slide up
() - Pinch Harmonic


Tuning: C G C F A D

All the riffs are in order. Just figure out the # of times to play each one.


Intro/verse (bend the pinch harmonic twice)
|-------------------------------------------------------------------|
|-------------------------------------------------------------------|
|-------------------------------------------------------------------|
|-------------------------------------------------------------------|
|------5p4--------5p4--------5p4--------5p4--------5p4---------(4^)-|
|-0000-----000000-----000000-----000000-----000000-----000000-------|
PM----     ------     ------     ------     ------     ------


|---------------------------------|
|---------------------------------|
|---------------------------------|
|-------------0-0-3--0-0-0-0------|
|-5h6p5-4---4-0-0-3--0-0-0-0--2---|
|---------0---0-0-3--0-0-0-0----2-|
PM        -   - -    - - - -


|----------------------------------|
|----------------------------------|
|----------------------------------|
|-9-7-5-4-7-5-3--4-3--0-0-0-0------|
|----------------4-3--0-0-0-0--2---|
|----------------4-3--0-0-0-0----2-|
PM- - - - - - -       - - - -


Verse
|-------------------------------------------------------------------|
|-------------------------------------------------------------------|
|-------------------------------------------------------------------|
|-------------------------------------------------------------------|
|------5p4--------5p4--------5p4--------5p4--------5p4---------(4^)-|
|-0000-----000000-----000000-----000000-----000000-----000000-------|
PM----     ------     ------     ------     ------     ------


Chorus
|---------------------------------|
|---------------------------------|
|---------------------------------|
|-------------0-0-3--0-0-0-0------|
|-5h6p5-4---4-0-0-3--0-0-0-0--2---|
|---------0---0-0-3--0-0-0-0----2-|
PM        -   - -    - - - -


|----------------------------------|
|----------------------------------|
|----------------------------------|
|-9-7-5-4-7-5-3--4-3--0-0-0-0------|
|----------------4-3--0-0-0-0--2---|
|----------------4-3--0-0-0-0----2-|
PM- - - - - - -       - - - -

Verse
|-------------------------------------------------------------------|
|-------------------------------------------------------------------|
|-------------------------------------------------------------------|
|-------------------------------------------------------------------|
|------5p4--------5p4--------5p4--------5p4--------5p4---------(4^)-|
|-0000-----000000-----000000-----000000-----000000-----000000-------|
PM----     ------     ------     ------     ------     ------

[ Tab from: http://www.guitartabs.cc/tabs/c/chimaira/stigmurder_tab.html ]
|------------------------------------------------|
|------------------------------------------------|
|------7\6---------7\6---------7\6-----------7\6-|
|-0-0--7\6--0-0-0--7\6--0-0-0--7\6--0-0-0-0--7\6-|
|-0-0--5\4--0-0-0--5\4--0-0-0--5\4--0-0-0-0--5\4-|
|-0-0-------0-0-0-------0-0-0-------0-0-0-0------|
PM- -       - - -       - - -       - - - -


|-------------------------------------------------------|
|-------------------------------------------------------|
|--------------------6\5---------------6\5--5/9--9-9-9--|
|-9-7-5-4-7-5-3--1---------4-3---1-1--------------------|
|----------------1---4\3---4-3---1-1---4\3--3/7--7-7-7--|
|----------------1---------4-3---1-1--------------------|
PM- - - - - - -                 


Breakdown
|-------------------------------|
|-------------------------------|
|-------6----------6----------6-|
|-0000--6--000000--6--000000--6-|
|-0000--4--000000--4--000000--4-|
|-0000-----000000-----000000----|
PM----     ------     ------


|-----------------------------------|
|-----------------------------------|
|-------6-------------6-----------6-|
|-0000--6-----000000--6-----0000--6-|
|-0000--4-----000000--4-----0000--4-|
|-0000--------000000--------0000----|
PM----        ------        ----


|---------------------------------|
|---------------------------------|
|---------------------------------|
|-------------0-0-3--0-0-0-0------|
|-5h6p5-4---4-0-0-3--0-0-0-0--2---|
|---------0---0-0-3--0-0-0-0----2-|
PM        -   - -    - - - -


|----------------------------------|
|----------------------------------|
|----------------------------------|
|-9-7-5-4-7-5-3--4-3--0-0-0-0------|
|----------------4-3--0-0-0-0--2---|
|----------------4-3--0-0-0-0----2-|
PM- - - - - - -       - - - -


|--------------------------------|
|--------------------------------|
|--------------------------------|
|--------------------------------|
|------5p4--------5p4--------5p4-|
|-0000-----000000-----000000-----|
PM----     ------     ------


|------------------|
|------------------|
|-------6--------6-|
|-0000--6--0000--6-|
|-0000--4--0000--4-|
|-0000-----0000----|
PM----     ----


|-------------------------------------------------------------------|
|-------------------------------------------------------------------|
|-------------------------------------------------------------------|
|-------------------------------------------------------------------|
|------5p4--------5p4--------5p4--------5p4--------5p4---------(4^)-|
|-0000-----000000-----000000-----000000-----000000-----000000-------|
PM----     ------     ------     ------     ------     ------


|---------------------------------|
|---------------------------------|
|---------------------------------|
|-------------0-0-3--0-0-0-0------|
|-5h6p5-4---4-0-0-3--0-0-0-0--2---|
|---------0---0-0-3--0-0-0-0----2-|
PM        -   - -    - - - -


|------------------------------------|
|------------------------------------|
|------------------------------------|
|-9-7-5-4-7-5-3--4-3--0-0-0-0--------|
|----------------4-3--0-0-0-0--2-----|
|----------------4-3--0-0-0-0----(2)-|
PM- - - - - - -       - - - -


|-------------------------------|
|-------------------------------|
|-------------------------------|
|------------0-0-0-0------------|
|-4h5p4-2----0-0-0-0--4h5p4-6-0-|
|---------3--0-0-0-0------------|
PM           - - - -


|-------------------------|
|-------------------------|
|-------------------------|
|------------0---0-0-0--0-|
|-4h5p4-2----0---0-0-0--0-|
|---------3--0---0-0-0--0-|
PM               - - -
Comments