Chimaira - Power Trip Chords & Tabs

 

Power Trip Chords & Tabs

Chimaira Chords & Tabs

Version: 2 Type: Tab 0 ratings
1 star 2 stars 3 stars 4 stars 5 stars
comments

Power Trip Tab

   
Artist: Chimaira
Song: Power Trip
Tabber: c0z420
I found This tab on MxTabs and it seems right to me...Here ya Go

Tuning C G C F A D

Intro
D|------------------------------------|
A|------------------------------------|
F|------------------------------------|
C|------------------------------------|
G|------------------------------------|
C|-3-33-6-3-4-3-6----3-33-6-3-4-3-6---|

Intro 2:
D|-----------------------------------------------------------------|
A|-----------------------------------------------------------------|
F|-----------------------------------------------------------------|
C|-----------------------------------------------------------------|
G|-3-33-6-3-4-3-6--3-33-6-3-4-3-6--3-33-6-3-4-3-6--3-33-6-3-4-3-6--|
C|-3-33-6-3-4-3-6--3-33-6-3-4-3-6--3-33-6-3-4-3-6--3-33-6-3-4-3-6--|

Verse: played slower then intro 
D|--------------------------------------------------------------------------|
A|--------------------------------------------------------------------------|
F|--------------------------------------------------------------------------|
C|-3-3-3-6-3-4-3-6-----3-3-3-6-3-4-3-6--3-3-3-6-3-4-3-6--3-33-6-3-4-3-6-----|
G|-3-3-3-6-3-4-3-6-----3-3-3-6-3-4-3-6--3-3-3-6-3-4-3-6--3-33-6-3-4-3-6-----|
C|-3-3-3-6-3-4-3-6-----3-3-3-6-3-4-3-6--3-3-3-6-3-4-3-6--3-33-6-3-4-3-6-----|
pm...........................................................................

Fills:
D|------------|---------------------------|
A|------------|---------------------------|
F|------------|---------------------------|
C|---4---6----|---6---0-------------------|
G|---4---6----|---6---0-----------0---0---|
C|---4---6----|---6---0----9^-----0---0---|
pm                               ........

Pre-Chorus Fill:
D|-------------------------------|
A|-------------------------------|
F|-------------------------------|
C|------pick scrape up neck------|
G|---////////////////------------|
C|--/////////////////------------|
[ Tab from: http://www.guitartabs.cc/tabs/c/chimaira/power_trip_tab_ver_2.html ]
Chorus (both guitars)
D|------------------------------------------------------------------------------------------|
A|------------------------------------------------------------------------------------------|
F|------------------------------------------------------------------------------------------|
C|-3-3-3-4--3-3--3-3-3-4--3-3--3-3-3-4-3-3---4--6----3--3-3-3-4--3--3-3---6--0--------0-0---|
G|-3-3-3-4--3-3--3-3-3-4--3-3--3-3-3-4-3-3---4--6----3--3-3-3-4--3--3-3---6--0---9^---0-0---|
C|-3-3-3-4--3-3--3-3-3-4--3-3--3-3-3-4-3-3---4--6----3--3-3-3-4--3--3-3---6--0---9^---0-0---|
pm . . .    . .  . . .    . .  . . .   . .           .  . . .    .  . .               . .
 
Breakdown: pinch harmonic with vibrato
D|------------------------------------------------------||
A|-pinch harmonic---------------------------------------||
F|--w/vibrato-------------------------------------------||o
C|------------------------------------------------------||o
G|-5*^^-----33333-----33333----3333666611112222----5*^--||
C|----------33333-----33333----3333666611112222---------||
pm         .....    .......   ................

D|------------------------------------------------------||
A|-pinch harmonic---------------------------------------||
F|--w/vibrato-------------------------------------------||o
C|-5*^^-------------------------------------------5*^^--||o
G|---------33333-----33333----3333666611112222----------||
C|---------33333-----33333----3333666611112222----------||
pm         .....    .......   .................

Solo: w/slight wah
D|------------------------------------------------|
A|--18b18 trem. pick w/ bends--til 24th fret------|
F|------------------------------------------------|
C|------------------------------------------------|
G|------------------------------------------------|
C|------------------------------------------------|

Breakdown 2: staccato notes
D|------------------------------|
A|------------------------------|
F|------------------------------|
C|-3--x---3--x---3--x---3---x---|
G|-3--x---3--x---3--x---3---x---|
C|-3--x---3--x---3--x---3---x---|

D|-----------------------------------------------------------------|
A|-----------------------------------------------------------------|
F|-----------------------------------------------------------------|
C|-----------------------------------------------------------------|
G|-3-33-6-3-4-3-6--3-33-6-3-4-3-6--3-33-6-3-4-3-6--3-33-6-3-4-3-6--|
C|-3-33-6-3-4-3-6--3-33-6-3-4-3-6--3-33-6-3-4-3-6--3-33-6-3-4-3-6--|

Outro:
D|----------------------------------|
A|----------------------------------|
F|----------------------------------|
C|--6--0-----------------4-0-6-3----|
G|--6--0---9^^~~~~-------4-0-6-3----|
C|--6--0---9^^~~~~-------4-0-6-3----|
Comments