Chimaira - Power Trip Chords & Tabs

 

Power Trip Chords & Tabs

Chimaira Chords & Tabs

Version: 1 Type: Tab 0 ratings
1 star 2 stars 3 stars 4 stars 5 stars
comments

Power Trip Tab

Band: Chimaira
Title: Power Trip
Album: The Impossibility of Reason
Submitted By: Sqweeky
Tabbed By: severed

-------------------------------------------------------------|
-------------------------------------------------------------|
-------------------------------------------------------------|
-------------------------------------------------------------| guitar 1
-------------------------------------------------------------|
---3---3-3--6-----3-4---3-6----------------------------------|

 ^^it took me ages to work out this part played very fast

------------------------------------------------------------------|
-----------------------------18bbbbbbbb---------------------------|tremolo picking
------------------------------------------------------------------|
------------------------------------------------------------------|
------------------------------------------------------------------|
------------------------------------------------------------------|

------------------------------------------------------------------|
------------------------------------------------------------------|
------------------------------------------------------------------|
------------------------------------------------------------------|
--3--3--3-----6-----3--4---6--------------------------------------|
--3--3--3-----6-----3--4---6--------------------------------------|


------------------------------------------------------------------------|
------------------------------------------------------------------------|
------------------------------------------------------------------------|
------3-----------------------------------------------------------------|whammy bar bend
------3-----------------------------------------------------------------|
------3-----------------------------------------------------------------|

[ Tab from: http://www.guitartabs.cc/tabs/c/chimaira/power_trip_tab.html ]
-----------------------------------------------------------------------|
-----------------------------------------------------------------------|
-----------------------------------------------------------------------|
---3---3----3----4---3----3------------3----3---3---4-----3----3-------|
---3---3----3----4---3----3------------3----3---3---4-----3----3-------|
---3---3----3----4---3----3------------3----3---3---4-----3----3-------|


-----------------------------------------------------------------------|
-----------------------------------------------------------------------|
-----------------------------------------------------------------------|
-----4----------6------------------------------------------------------|
-----4----------6------------------------------------------------------|
-----4----------6------------------------------------------------------|


-----------------------------------------------------------------------|
-----------------------------------------------------------------------|
-----------------------------------------------------------------------|
---3---3----3----4---3----3------------3----3---3---4-----3----3-------|
---3---3----3----4---3----3------------3----3---3---4-----3----3-------|
---3---3----3----4---3----3------------3----3---3---4-----3----3-------|


----------------------------------------------------------------------|
----------------------------------------------------------------------|
----------------------------------------------------------------------|
----6--------/1---------------1-----1---------------------------------|
----6--------/1---------------1-----1---------------------------------|
----6--------/1------/9b------1-----1---------------------------------|


pause


------------------------------------------------------------------------|
------------------------------------------------------------------------|
------------------------------------------------------------------------|
------------8^----------------------------------------------------------|w/ whammy pedal
------------------------------------------------------------------------|
------------------------------------------------------------------------|

-----------------------------------------------------------------------|
-----------------------------------------------------------------------|
-----------------------------------------------------------------------|
-----------------------------------------------------------------------|
-----------------------------------------------------------------------|
3-3--3--3--3---3--3--3--3--3---3-3-3--6-66--1--1--1----2--2--2---------|
Comments