Chimaira - Pictures In The Gold Room Chords & Tabs

 

Pictures In The Gold Room Chords & Tabs

Chimaira Chords & Tabs

Version: 2 Type: Tab 0 ratings
1 star 2 stars 3 stars 4 stars 5 stars
comments

Pictures In The Gold Room Tab

Band: Chimaira
Title: Pictures In The Gold Room
Album: The Impossibility of Reason
Tabber: Sqweeky

Opening Riff (1)
D|-----------------------------------------|
A|-----------------------------------------|
F|-----------------------------------------|
C|-----------------------------------------|
G|--1p0--0--1p0--0--1p0--0--1p0-00-0-0-0---|
C|--1p0--0--1p0--0--1p0--0--1p0-00-0-0-0---|
      .  .    .  .    .  .    . .. . . .
 Verse (Riff 2)
|--------------------------|
|--------------------------|
|--------------------------|
|--------------------------|
|-0---1p0-00-0-0-0----0----|
|-0---1p0-00-0-0-0----0----|
        . .. . . .
 2nd Part of Verse (Riff 3)
|------------------------------------|
|------------------------------------|
|------------------------------------|
|------------------------------------|
|-1p0--0--1p0--0--1p0--0--1-3-1-1-0--|
|-1p0--0--1p0--0--1p0--0--1-3-1-1-0--|
    .  .    .  .    .  .  . . . . .

Fill (Riff 4)
|-------------------------------------|
|-------------------------------------|
|-------------------------------------|
|-------------------------------------|
|-------------------------------------|
|-2-2-2-2-2-2-5-5-5-5-5//////////-----|
[ Tab from: http://www.guitartabs.cc/tabs/c/chimaira/pictures_in_the_gold_room_tab_ver_2.html ]
Riff 5
|---------------------------------
|---------------------------------
|---------------------------------
|---------------------------------
|-1p0-0-1p0-0-1p0-1p0-00-0-0-0----
|-1p0-0-1p0-0-1p0-1p0-00-0-0-0----
    . .   . .   .   . .. . . .
-------------------------------------------|
-------------------------------------------|
-------------------------------------------|
-------------------------------------------|
-1p0-0-1p0-0-1p0--3/5-5/6------------------|
-1p0-0-1p0-0-1p0---------3/5-5/6-----------|
   . .   . .   .

Fill 2
|---------------------------------------|
|---------------------------------------|
|---------------------------------------|
|---------------------------------------|
|-3/5-5/6----------<5>--0-0-0-3-0-0-----|
|---------3/5-5/6-------0-0-0-3-0-0-----|
                        . . .   . .

Bridge (Riff 6)
|--------------------------|
|--------------------------|
|--------------------------|
|--------------------------|
|-0----11^----5-2--1-1-----|
|-0----11^----5-2--1-1-----|
                   . .

**These next two riffs may be completely wrong. If someone
could please tell me how it should be, that would be great.
                   
Riff 7
|----------------------|
|----------------------|
|----------------------|
|----------------------|
|--5/6-5-4-4/5-4-3-----|
|----------------------|

Riff 8
|----------------------|
|----------------------|
|----------------------|
|----------------------|
|-5-6-5-4-4-5-4-3------|
|-5-6-5-4-4-5-4-3------|
  . . . . . . . .
Comments