Chimaira - Painting The White To Grey Chords & Tabs

 

Painting The White To Grey Chords & Tabs

Chimaira Chords & Tabs

Version: 2 Type: Tab 0 ratings
1 star 2 stars 3 stars 4 stars 5 stars
comments

Painting The White To Grey Tab

Painting the white to grey

6-string guitar tuned to B
/\/\/\= vibrato
h=hammer on
x=palm mute
/=slide

||------------------------------------------------------||
||------------------------------------------------------||
||------------------------------------------------------||
||------------------------------------------------------||
||------------------------------------------------------||
||---4-3-3--4-3-3---3------3---4-3-3--4-3-3-------------||
||---4-3-3--4-3-3------3---3---4-3-3--4-3-3-------------||

||-----------------------------------------------||
||-----------------------------------------------||
||-----------------------------------------------||
||-----------------------------------------------||
||---------------------------------------1-------||
||---------------------------------------1-------||
||-0-1-3---0---4-3-1-0----1-3-0------1-----------||

||----------------------------------------------------------------||
||----------------------------------------------------------------||
||----------------------------------------------------------------||
||----7--------------------------7--------------------------------||
||----6----------------------6--------6-----------5/6-------------||
||----5----------------5------------------5-------4/5-------------||
||----------------------------------------------------------------||

[ Tab from: http://www.guitartabs.cc/tabs/c/chimaira/painting_the_white_to_grey_tab_ver_2.html ]
||-----------------------------------------------------------------||
||-----------------------------------------------------------------||
||-----------------------------------------------------------------||
||-----------------------------------------------------------------||
||------------------------------------------------------------1----||
||------------------------------------------------------------1----||
||--xxxxxxxxxx----0----2-2---0----2---0-----2----0----2-3--1-------||

||------------------------------------------------||
||------------------------------------------------||
||------------------------------------------------||
||------------------------------------------------||
||---------------------------------11/\/\---------||
||------------------------------------------------||
||-0-2-2---0-2--0-2---0-0-0-----------------------||


repeat previous part, then back to beginning, then...


||-------------------------------------------||
||-------------------------------------------||
||-------------------------------------------||
||-------------------------------------------||
||-------------------------------------------||
||-----x--------x----------------------------||
||-0h1-x-0--0h1-x-0h1--0h1-------------------||

||-------------------------------------------||
||-------------------------------------------||
||-------------------------------------------||
||-------------------------------------------||
||----------1------------1-------------------||
||----------1------------1-------------------||
||--0h1--x--1----0h1--x--1-------------------||

build up
||---------------------------------------||
||---------------------------------------||
||---------------------------------------||
||---------------------------------------||
||----7h8-8-8-7h8-8-8-7h8-88-------------||
||---------------------------------------||
||---------------------------------------||

then


||------------------------------------------------------||
||------------------------------------------------------||
||------------------------------------------------------||
||------------------------------------------------------||
||1-0-0-1---0-0-0--1-0-0--1----0--0-0-0---1-0-0-1-------||
||1-0-0-1---0-0-0--1-0-0--1----0--0-0-0---1-0-0-1-------||
||1-0-0-1---0-0-0--1-0-0--1----0--0-0-0---1-0-0-1-------||
Comments