Chimaira - Nothing Remains Chords & Tabs

 

Nothing Remains Chords & Tabs

Chimaira Chords & Tabs

Version: 2 Type: Tab 0 ratings
1 star 2 stars 3 stars 4 stars 5 stars
comments

Nothing Remains Tab

   
-------------------------------------------------------------------------------
			     Nothing Remains - Chimaira
-------------------------------------------------------------------------------
Tabbed by: Jason Alford
Email: alfordjk@hotmail.com

Tuning: "Dropped-C"(Tune guitar down a whole step then drop sixth from D to C)

NOTHING REMAINS!!
D|---------------------------------------------------------------------------|
A|---------------------------------------------------------------------------|
F|---------------------------------------------------------------------------|
C|--4-----4-----4--4-----4-----4--4-----4-----4--4-----4-----4---------------|
G|--4-----4-----4--4-----4-----4--4-----4-----4--4-----4-----4---------------|
C|----5-5---5-5------5-5---5-5------5-5---5-5------5-5---5-5-----------------|
pm    . .   . .      . .   . .      . .   . .   . .   . .

D|---------------------------------------------------------------------------|
A|---------------------------------------------------------------------------|
F|---------------------------------------------------------------------------|
C|-------------------4-----4-----4--------------------4-----4-----4----------|
G|-------------------4-----4-----4--------------------4-----4-----4----------|
C|--5555555555555555---5-5---5-5---5-5555555555555555---5-5---5-5---5--------|
pm  ................   . .   . .   . ................   . .   . .   .

D|---------------------------------------------------------------------------|
A|---------------------------------------------------------------------------|
F|---------------------------------------------------------------------------|
C|-------------------4-----4-----4--------------------4----------------------|
G|-------------------4-----4-----4--------------------4----------------------|
C|--5555555555555555---5-5---5-5---5-5555555555555555------------------------|
pm  ................   . .   . .   . ................   

D|---------------------------------------------------------------------------|
A|---------------------------------------------------------------------------|
F|---------------------------------------------------------------------------|
C|--1h2-------------1----1----1-5-4-------------1-----1-----1-6-5------------|
G|--1h2-------------1----1----1-5-4-------------1-----1-----1-6-5------------|
C|------2-2-2-2-2-2--2-2--2-2-------2-2-2-2-2-2---2-2---2-2------------------|
pm      . . . . . .  . .   . .      . . . . . .   . .   . .

D|---------------------------------------------------------------------------|
A|---------------------------------------------------------------------------|
F|---------------------------------------------------------------------------|
C|--------------1-----1-----1-5-4-------------1-----1-----1------------------|
G|--------------1-----1-----1-5-4-------------1-----1-----1------------------|
C|--2-2-2-2-2-2---2-2---2-2-------2-2-2-2-2-2---2-2---2-2--------------------|
pm  . . . . . .   . .   . .       . . . . . .   . .   . .

D|---------------------------------------------------------------------------|
A|---------------------------------------------------------------------------|
F|---------------------------------------------------------------------------|
C|--0----4----3----4----6--7----7----8---------------------------------------|
G|--0----2----1----4----4--5----7----6---------------------------------------|
C|--0--------------4------------7---------8~~~~~-----------------------------|

D|---------------------------------------------------------------------------|
A|---------------------------------------------------------------------------|
F|---------------------------------------------------------------------------|
C|--0----4----3----4----6--7----7----8---------------------------------------|
G|--0----2----1----4----4--5----7----6---------------------------------------|
C|--0--------------4------------7---------8~~~~~-----------------------------|

D|---------------------------------------------------------------------------|
A|---------------------------------------------------------------------------|
F|---------------------------------------------------------------------------|
C|--4-----4-----4--4-----4-----4---------------------------------------------|
G|--4-----4-----4--4-----4-----4---------------------------------------------|
C|----5-5---5-5------5-5---5-5-----------------------------------------------|
pm    . .   . .      . .   . .      

D|---------------------------------------------------------------------------|
A|---------------------------------------------------------------------------|
F|---------------------------------------------------------------------------|
C|-------------------4-----4-----4--------------------4-----4-----4----------|
G|-------------------4-----4-----4--------------------4-----4-----4----------|
C|--5555555555555555---5-5---5-5---5-5555555555555555---5-5---5-5---5--------|
pm  ................   . .   . .   . ................   . .   . .   .

D|---------------------------------------------------------------------------|
A|---------------------------------------------------------------------------|
F|---------------------------------------------------------------------------|
C|-------------------4-----4-----4--------------------4----------------------|
G|-------------------4-----4-----4--------------------4----------------------|
C|--5555555555555555---5-5---5-5---5-5555555555555555------------------------|
pm  ................   . .   . .   . ................

D|---------------------------------------------------------------------------|
A|---------------------------------------------------------------------------|
F|---------------------------------------------------------------------------|
C|--1h2-------------1----1----1-5-4-------------1-----1-----1-6-5------------|
G|--1h2-------------1----1----1-5-4-------------1-----1-----1-6-5------------|
C|------2-2-2-2-2-2--2-2--2-2-------2-2-2-2-2-2---2-2---2-2------------------|
pm      . . . . . .  . .   . .      . . . . . .   . .   . .

D|---------------------------------------------------------------------------|
A|---------------------------------------------------------------------------|
F|---------------------------------------------------------------------------|
C|--------------1-----1-----1-5-4-------------1-----1-----1------------------|
G|--------------1-----1-----1-5-4-------------1-----1-----1------------------|
C|--2-2-2-2-2-2---2-2---2-2-------2-2-2-2-2-2---2-2---2-2--------------------|
pm  . . . . . .   . .   . .       . . . . . .   . .   . .

D|---------------------------------------------------------------------------|
A|---------------------------------------------------------------------------|
F|---------------------------------------------------------------------------|
C|--0----4----3----4----6--7----7----8---------------------------------------|
G|--0----2----1----4----4--5----7----6---------------------------------------|
C|--0--------------4------------7---------8~~~~~-----------------------------|

D|---------------------------------------------------------------------------|
A|---------------------------------------------------------------------------|
F|---------------------------------------------------------------------------|
C|--0----4----3----4----6--7----7----8---------------------------------------|
G|--0----2----1----4----4--5----7----6---------------------------------------|
C|--0--------------4------------7---------8~~~~~-----------------------------|

D|---------------------------------------------------------------------------|
A|---------------------------------------------------------------------------|
F|---------------------------------------------------------------------------|
C|--4-----4-----4--4-----4-----4---------------------------------------------|
G|--4-----4-----4--4-----4-----4---------------------------------------------|
C|----5-5---5-5------5-5---5-5-----------------------------------------------|
pm    . .   . .      . .   . .      

D|---------------------------------------------------------------------------|
A|---------------------------------------------------------------------------|
F|---------------------------------------------------------------------------|
C|-------------------4-----4-----4--------------------4-----4-----4----------|
G|-------------------4-----4-----4--------------------4-----4-----4----------|
C|--5555555555555555---5-5---5-5---5-5555555555555555---5-5---5-5---5--------|
pm  ................   . .   . .   . ................   . .   . .   .

D|---------------------------------------------------------------------------|
A|---------------------------------------------------------------------------|
F|---------------------------------------------------------------------------|
C|-------------------4-----4-----4--------------------4----------------------|
G|-------------------4-----4-----4--------------------4----------------------|
C|--5555555555555555---5-5---5-5---5-5555555555555555------------------------|
pm  ................   . .   . .   . ................

D|---------------------------------------------------------------------------|
A|---------------------------------------------------------------------------|
F|---------------------------------------------------------------------------|
C|--4-4-3-3-6-6-5-5-4-4-3-3-6-6-5-5-4-4-3-3-6-6-5-5-4-4-3-3-6-6-5-5----------|
G|--4-4-3-3-6-6-5-5-4-4-3-3-6-6-5-5-4-4-3-3-6-6-5-5-4-4-3-3-6-6-5-5----------|
C|--4-4-3-3-6-6-5-5-4-4-3-3-6-6-5-5-4-4-3-3-6-6-5-5-4-4-3-3-6-6-5-5----------|

[ Tab from: http://www.guitartabs.cc/tabs/c/chimaira/nothing_remains_tab_ver_2.html ]
D|---------------------------------------------------------------------------|
A|---------------------------------------------------------------------------|
F|---------------------------------------------------------------------------|
C|--0----7----3----8---------------------------------------------------------|
G|--0----7----3----8----0----------------------------------------------------|
C|--0----7----3----8----0----------------------------------------------------|
pm                      .

Rythmn part under lead
D|---------------------------------------------------------------------------|
A|---------------------------------------------------------------------------|
F|---------------------------------------------------------------------------|
C|--0----4----5----8--8--------0-------4----5----8--8------------------------|
G|--0----4----3----6--6--------0----4--4----3----6--6------------------------|
C|--0----4---------------------0----4--4-------------------------------------|
pm                 .                .            .

D|---------------------------------------------------------------------------|
A|---------------------------------------------------------------------------|
F|---------------------------------------------------------------------------|
C|--0----4----5----8-----------0----4----5----8------------------------------|
G|--0----4----3----6(let ring)-0----4----3----6------------------------------|
C|--0----4---------------------0----4----------------------------------------|
pm                                              


D|---------------------------------------------------------------------------|
A|---------------------------------------------------------------------------|
F|---------------------------------------------------------------------------|
C|---------------------------------------------------------------------------|
G|---------------------------------------------------------------------------|
C|--main-riff-a-bunch-of-times-until-pre-solo--------------------------------|

riff between pre-solo and solo and again at end of solo
D|---------------------------------------------------------------------------|
A|---------------------------------------------------------------------------|
F|---------------------------------------------------------------------------|
C|--4----6----2--------------------------------------------------------------|
G|--4----6----2--------------------------------------------------------------|
C|--4----6----2--------------------------------------------------------------|

Solo

D|---------------------------------------------------------------------------|
A|---------------------------------------------------------------------------|
F|---------------------------------------------------------------------------|
C|--4-----4-----4--4-----4-----4--4-----4-----4--4-----4-----4---------------|
G|--4-----4-----4--4-----4-----4--4-----4-----4--4-----4-----4---------------|
C|----5-5---5-5------5-5---5-5------5-5---5-5------5-5---5-5-----------------|
pm    . .   . .      . .   . .      . .   . .      . .   . .

D|---------------------------------------------------------------------------|
A|---------------------------------------------------------------------------|
F|---------------------------------------------------------------------------|
C|-------------------4-----4-----4--------------------4-----4-----4----------|
G|-------------------4-----4-----4--------------------4-----4-----4----------|
C|--5555555555555555---5-5---5-5---5-5555555555555555---5-5---5-5---5--------|
pm  ................   . .   . .   . ................   . .   . .   .

D|---------------------------------------------------------------------------|
A|---------------------------------------------------------------------------|
F|---------------------------------------------------------------------------|
C|-------------------4-----4-----4--------------------4----------------------|
G|-------------------4-----4-----4--------------------4----------------------|
C|--5555555555555555---5-5---5-5---5-5555555555555555------------------------|
pm  ................   . .   . .   . ................   

D|---------------------------------------------------------------------------|
A|---------------------------------------------------------------------------|
F|---------------------------------------------------------------------------|
C|-------------------4-----4-----4--------------------4-----4-----4----------|
G|-------------------4-----4-----4--------------------4-----4-----4----------|
C|--5555555555555555---5-5---5-5---5-5555555555555555---5-5---5-5---5--------|
pm  ................   . .   . .   . ................   . .   . .   .

D|---------------------------------------------------------------------------|
A|---------------------------------------------------------------------------|
F|---------------------------------------------------------------------------|
C|-------------------4-----4-----4--------------------4----------------------|
G|-------------------4-----4-----4--------------------4----------------------|
C|--5555555555555555---5-5---5-5---5-5555555555555555------------------------|
pm  ................   . .   . .   . ................   

D|---------------------------------------------------------------------------|
A|---------------------------------------------------------------------------|
F|---------------------------------------------------------------------------|
C|------4--------------4--------------4--------------4-----------------------|
G|------4--------------4--------------4--------------4-----------------------|
C|--5-5---5-5-5----5-5---5-5-5----5-5---5-5-5----5-5---5-5-5-----------------|
pm  . .   . . .    . .   . . .    . .   . . .    . .   . . .

D|---------------------------------------------------------------------------|
A|---------------------------------------------------------------------------|
F|---------------------------------------------------------------------------|
C|------4--------------4--------------4--------------4-----------------------|
G|------4--------------4--------------4--------------4-----------------------|
C|--5-5---5-5-5----5-5---5-5-5----5-5---5-5-5----5-5---5-5-5-----------------|
pm  . .   . . .    . .   . . .    . .   . . .    . .   . . .

D|---------------------------------------------------------------------------|
A|---------------------------------------------------------------------------|
F|---------------------------------------------------------------------------|
C|------4--------------4--------------4--------------4-----------------------|
G|--5-5-4-5-5-5----5-5-4-5-5-5----5-5-4-5-5-5----5-5-4-5-5-5-----------------|
C|--5-5---5-5-5----5-5---5-5-5----5-5---5-5-5----5-5---5-5-5-----------------|
pm  . .   . . .    . .   . . .    . .   . . .    . .   . . .

D|---------------------------------------------------------------------------|
A|---------------------------------------------------------------------------|
F|---------------------------------------------------------------------------|
C|------4--------------4--------------4--------------4-----------------------|
G|--5-5-4-5-5-5----5-5-4-5-5-5----5-5-4-5-5-5----5-5-4-5-5-5-----------------|
C|--5-5---5-5-5----5-5---5-5-5----5-5---5-5-5----5-5---5-5-5-----------------|
pm  . .   . . .    . .   . . .    . .   . . .    . .   . . .

D|---------------------------------------------------------------------------|
A|---------------------------------------------------------------------------|
F|---------------------------------------------------------------------------|
C|------4--------------4--------------4--------------4-----------------------|
G|--5-5-4-5-5-5----5-5-4-5-5-5----5-5-4-5-5-5----5-5-4-5-5-5-----------------|
C|--5-5---5-5-5----5-5---5-5-5----5-5---5-5-5----5-5---5-5-5-----------------|
pm  . .   . . .    . .   . . .    . .   . . .    . .   . . .

D|---------------------------------------------------------------------------|
A|---------------------------------------------------------------------------|
F|---------------------------------------------------------------------------|
C|------4-------4-------4-------4--------------------------------------------|
G|--5-5-4-5-5-5-4-5-5-5-4-5-5-5-4--------------------------------------------|
C|--5-5---5-5-5---5-5-5---5-5-5----------------------------------------------|
pm  . .   . . .   . . .   . . .

D|---------------------------------------------------------------------------|
A|---------------------------------------------------------------------------|
F|---------------------------------------------------------------------------|
C|------4-------4-------4-------4--------------------------------------------|
G|--5-5-4-5-5-5-4-5-5-5-4-5-5-5-4--------------------------------------------|
C|--5-5---5-5-5---5-5-5---5-5-5----------------------------------------------|
pm  . .   . . .   . . .   . . .

D|---------------------------------------------------------------------------|
A|---------------------------------------------------------------------------|
F|---------------------------------------------------------------------------|
C|--4----6----2--------------------------------------------------------------|
G|--4----6----2--------------------------------------------------------------|
C|--4----6----2--------------------------------------------------------------|

D|---------------------------------------------------------------------------|
A|---------------------------------------------------------------------------|
F|---------------------------------------------------------------------------|
C|--4-----4-----4--4-----4-----4---------------------------------------------|
G|--4-5-5-4-5-5-4--4-5-5-4-5-5-4---------------------------------------------|
C|----5-5---5-5------5-5---5-5-----------------------------------------------|
pm    . .   . .      . .   . . 


Thats all i got, enjoy!


| /  slide up
| \  slide down
| h  hammer-on
| p  pull-off
| ~  vibrato
| +  harmonic
| x  Mute note
===============================================================================
Comments