Chimaira - Nothing Remains Chords & Tabs

 

Nothing Remains Chords & Tabs

Chimaira Chords & Tabs

Version: 1 Type: Tab 0 ratings
1 star 2 stars 3 stars 4 stars 5 stars
comments

Nothing Remains Tab

   
-------------------------------------------------------------------------------
			  NOTHING REMAINS - Chimaira
-------------------------------------------------------------------------------
Tabbed by: Druss
Email:
[ Tab from: http://www.guitartabs.cc/tabs/c/chimaira/nothing_remains_tab.html ]
Tuning down tune guitars by half step
( after marks screams nothing remains!)
e|---------------------------------------------------------|--------------|
B|---------------------------------------------------------|--------------|
G|---------------------------------------------------------|--------------|
D|-3-----3-----3-3-----3-----3-3-----3-----3-3-----3-----3-|--------------|
A|-3-----3-----3-3-----3-----3-3-----3-----3-3-----3-----3-|-111111111111-|
E|---0-0---0-0-----0-0---0-0-----0-0---0-0-----0-0---0-0---|-111111111111-|
     * *   * *     * *   * *     * *   * *     * *   * *     ************
e|------------------------------------------------------------------------|
B|------------------------------------------------------------------------|
G|------------------------------------------------------------------------|
D|-3-----3-----3--------3-----3-----3--------3-----3-----3--------3-------|
A|-3-----3-----3-1(x10)-3-----3-----3-1(x10)-3-----3-----3-1(x10)-3-------|
E|---0-0---0-0---1(x10)---0-0---0-0---1(x10)---0-0---0-0---1(x10)---------|
     * *   * *   *        * *   * *   *        * *   * *   *
e|--------------------------------------------------------------------------
B|--------------------------------------------------------------------------
G|--------------------------------------------------------------------------
D|-5-7-------------3-----3-----5/7\6--------------3-----3-----5/7\6---------
A|-3-5-------------3-----3-----3/5\4--------------3-----3-----3/5\4---------
E|-----0-0-0-0-0-0---0-0---0-0------0-0-0-0-0-0-0---0-0---0-0-------0-0-0-0-
       * * * * * *   * *   * *      * * * * * * *   * *   * *       * * * *
e|---------------------------------------------------|
B|---------------------------------------------------|
G|---------------------------------------------------|
D|-----3-----3-----5/7\6-------------3-----3-----3-3-|
A|-----3-----3-----3/5\4-------------3-----3-----3-3-|
E|-0-0---0-0---0-0-------0-0-0-0-0-0---0-0---0-0-----|
   * *   * *   * *       * * * * * *   * *   * *
(Verse riff)
e|-------------------------------------------------------------|
B|-------------------------------------------------------------|
G|-------------------------------------------------------------|
D|-2--5--4--3--2-7--5--8--3------------------------------------|
A|-2--3--2--1--2-5--3--6--1------------------------------------|
E|-------------0-----------------------------------------------|

(chorus)

e|------------------------------------------------------------------------|
B|------------------------------------------------------------------------|
G|------------------------------------------------------------------------|
D|-3-----3-----3--------3-----3-----3--------3-----3-----3--------3-------|
A|-3-----3-----3-1(x10)-3-----3-----3-1(x10)-3-----3-----3-1(x10)-3-------|
E|---0-0---0-0---1(x10)---0-0---0-0---1(x10)---0-0---0-0---1(x10)---------|
     * *   * *   *        * *   * *   *        * *   * *   *
(verse riff again)

(chorus)

(riff 4)
e|----------------------------------------------------------------|
B|----------------------------------------------------------------|
G|----------------------------------------------------------------|
D|--3-3-2-2-5-5-4-4-3-3-2-5-5-4-4-3-3-2-2-5-5-4-4-3-3-2-2-5-5-4-4-|
A|--3-3-2-2-5-5-4-4-3-3-2-5-5-4-4-3-3-2-2-5-5-4-4-3-3-2-2-5-5-4-4-|
E|-0-0-0-0-0-0-0-0-0-0-0-0-0-0-0-0-0-0-0-0-0-0-0-0-0-0-0-0-0-0-0--|

and thats all i got kiddies. gotta work the rest of it out for yourselves,
ive tabbed the easy part, hopefully it sounds cool on ur geeeeetaRs.


| /  slide up
| \  slide down
| h  hammer-on
| p  pull-off
| ~  vibrato
| +  harmonic
| x  Mute note
===============================================================
================
Comments