Chimaira - Lumps Chords & Tabs

 

Lumps Chords & Tabs

Chimaira Chords & Tabs

Version: 1 Type: Tab 0 ratings
1 star 2 stars 3 stars 4 stars 5 stars
comments

Lumps Tab

Band: Chimaira
Title: Lumps
Tabber: Sqweeky


-------------------------------------------------------------
-------------------------------------------------------------
-------------------------------------------------------------
-------------------------------------------------------------
-------------------------------------------------------------
-------------------------------------------------------------
--2--2--2--2--2--2--2--2----1-1-1----2-2----1-1-1------------


----------------------------19-------------------------------
-------------------------------------------------------------
-------------------------------------------------------------
-------------------------------------------------------------          bend with bar
-------------------------------------------------------------
-------------------------------------------------------------
-------------------------------------------------------------


-------------------------------------------------------------
-------------------------------------------------------------
-------------------------------------------------------------
----------------8------------------------15-15--------15--15-
----------------7--------------------------------------------
----------------6------------------------13-13--------13--13-
---0--0--0------------0--0--0------0------------0------------


-------------------------------------------------------------
-------------------------------------------------------------
-------------------------------------------------------------
----------------8-------------------------15b----------15b---
----------------7--------------------------------------------
----------------6-------------------------13b----------13b---
---0--0--0------------0--0--0------0------------0------------

[ Tab from: http://www.guitartabs.cc/tabs/c/chimaira/lumps_tab.html ]
-----10p9----10p9---10p9------9p7---9p7--9p7-----------------
-------------------------------------------------------------
-------------------------------------------------------------
-------------------------------------------------------------
-------------------------------------------------------------
-------------------------------------------------------------
-------------------------------------------------------------


--------------------------------------------------------------------------
--------------------------------------------------------------------------
--------------------------------------------------------------------------
--------------------------------------------------------------------------
--------------------------------------------------------------------------
--------------------------------------------------------------------------
---0----2----3----2----0----2----------0-----2----3-----2-----0----2----3-


--------------------------------------------------------------------------
--------------------------------------------------------------------------
--------------------------------------------------------------------------
--------------------------------------------------------------------------
--------------------------------------------------------------------------
---0----2----3----2----0----2----------0-----2----3-----2-----0----2----3-
---0----2----3----2----0----2----------0-----2----3-----2-----0----2----3-



--------------------------------------------------------------------------
--------------------------------------------------------------------------
--------------------------------------------------------------------------
--------------------------------------------------------------------------
---0----2----3----2----0----2----------0-----2----3-----2-----0----2----3-
--------------------------------------------------------------------------
--------------------------------------------------------------------------


-----------------------------------------------------------------------------------------------
---10---------------------------------10--------------------------10-10-10--10-------10--10----
-----------------------------------------------------------------------------------------------
---8-----------------------------------8---------------------------8---8---8---8---------8---8-
-----------------------------------------------------------------------------------------------
--------0---0-----0---0----0---0-----------0--0---0--0---0-----------------------0-------------
--------0---0-----0---0----0---0-----------0--0---0--0---0-----------------------0-------------
Comments