Chimaira - Let Go Chords & Tabs

 

Let Go Chords & Tabs

Chimaira Chords & Tabs

Version: 1 Type: Tab 0 ratings
1 star 2 stars 3 stars 4 stars 5 stars
comments

Let Go Tab

   
Artist: Chimaira
Song: Let Go
Album: Pass Out Of Existance

Tuning: 7-String (AEADGBE)


b = bend
x = scratch
h = hammer on
p = pull off


E--------------------------------------------------------
B--------------------------------------------------------
G--------------------------------------------------------
D----------------------15--------------15----------------
A--------------------------------------------------------
E--------------12-------------12-------------------------
A--0----0------------------------------------------------

E--------------------------------------------------------
B--------------------------------------------------------
G--------------------------------------------------------
D---------------------------15--------------15-----------
A--------------------------------------------------------
E--0----0------12----------------12----------------------
A--0----0------------------------------------------------

E--------------------------------------------------------
B--------------------------------------------------------
G------------------------------------16------------------
D----------------------------15-------------15-----------
A--------------------------------------------------------
E---0----0--------12-------------------------------------
A---0----0-----------------------------------------------

E--------------------------------------------------------
B--------------------------------------------------------
G--------------------------------------------------------
D--------------------------------------------------------
A--------------------------------------------------------
E--------------------------------------------------------
A---0-----1--------4---3----1----4-----------------------

E--------------------------------------------------------
B--------------------------------------------------------
G--------------------------------------------------------
D--------------------------------------------------------
A--------------------------------------------------------
E--0---1---------4---3----1-----4------------------------
A--0---1---------4---3----1-----4------------------------

E--------------------------------------------------------
B--------------------------------------------------------
G--------------------------------------------------------
D--------------------------------------------------------
A--------------------------------------------------------
E---1---1---1--------1---1----1--------------------------
A---1---1---1--------1---1----1--------------------------

(WITH WAH-WAH PETAL)
E--------------------------------------------------------
B--------------------------------------------------------
G--------------------------------------------------------
D--------------------------------------------------------
A--------------------------------------------------------
E--x--x---x-------x---x----x------x---x---x--------------
A--------------------------------------------------------
[ Tab from: http://www.guitartabs.cc/tabs/c/chimaira/let_go_tab.html ]
E--------------------------------------------------------
B--------------------------------------------------------
G------------------------------------------15---15---15--
D--------------------------------------------------------
A------------------------------------------12---12---12--
E--0---0----6----0---0----9-----0---0---10---------------
A--0---0----6----0---0----9-----0---0---10---------------

INTRELUDE

GUITAR 1
E--------------------------------------------------------
B--------------------------------------------------------
G--9---8-------------------7-----6-----------------------
D--7---6------9-----8------5-----4----7------------------
A----------------------7--------6-----5------4h5p4h5p4---
E--------------------------------------------------------
A--------------------------------------------------------

GUITAR 2
E--------------------------------------------------------
B--------------------------------------------------------
G--------------------------------------------------------
D---7-----6--------------------5-----4-------------------
A--------------------------------------------------------
E---5-----4-----7------6-------3-----2-----5-------------
A---------------7------6-------------------5--4h5p4h5p4--

GUITAR 1
E---------------------------------------------------------
B---------------------------------------------------------
G--9-------8-------------------------------7---------10---
D--7-------6----------9-------10---------5---------8------
A----------------------7--------8-------------------------
E---------------------------------------------------------
A---------------------------------------------------------

GUITAR 2
E---------------------------------------------------------
B---------------------------------------------------------
G---------------------------------------------------------
D-------7-------6-----------------------------5-------8---
A---------------------------------------------------------
E-------5-------4-------7--------8-----------3-------6----
A------------------------7--------8-----------------------

E---------------------------------------------------------
B---------------------------------------------------------
G---------------------------------------------------------
D---------------------------------------------------------
A-------------------------------------------/8----7-------
E-8----7----8---7--7-7-7-7---8--7---7---7----------8------
A-8----7----8---7--7-7-7-7---8--7---8---7-----------------

E---------------------------------------------------------
B---------------------------------------------------------
G---------------------------------------------------------
D---------------------------------------------------------
A---------------------------------------------------------
E-8--8-8-8-8---7--7--7--7--7--8--8-8-8-8-8--7--7-7-7--7---
A-8--8-8-8-8---7--7--7--7--7--8--8-8-8-8-8--7--7-7-7--7---

(VERY SLOW WITH WAH-WAH PETAL)
E---------------------------------------------------------
B---------------------------------------------------------
G-----13b-------------------------------------------------
D---------------------------------------------------------
A---------------------------------------------------------
E---------------------------------------------------------
A---------------------------------------------------------

E--16-----------------15--------------14-------------/13--
B---------15---------------14--------------13-------------
G---------------14--------------13--------------12--------
D---------------------------------------------------------
A---------------------------------------------------------
E---------------------------------------------------------
A---------------------------------------------------------

for questions, ask kenkoopah@aol.com - not me
Comments