Chimaira - Jade Chords & Tabs

 

Jade Chords & Tabs

Chimaira Chords & Tabs

Version: 1 Type: Tab 0 ratings
1 star 2 stars 3 stars 4 stars 5 stars
comments

Jade Tab

   
Jade
By Chimaira
Tabbed by Ian Smedbron

Tuning:7 String Guitar in Drop A(AEADGBe)

p = hammer on
b = bend
p =pull off
/ = slide

the intro is actually a sample of guitarsm but this is what they are playing

|----------------------------------------------------------|
|----------------------------------------------------------|
|----9----10---14----------12---14---10--------------------|
|----------------------------------------------------------|
|----7----8----12----------10---12---8---------------------|
|----------------------------------------------------------|
|--0----0----0-----then--0----0----0-----------------------|


as the above riff repeats guitars enter with little fills at the end of each part

|------------------|---------------------|
|------------------|---------------------|
|------------------|---------------------|
|------------------|-----------------7b--|
|-8h10p8--7h8p7-7b-|-8h10p8--7h8h10------|
|------------------|---------------------|
|------------------|---------------------|

|-------------------------|
|-------------------------|
|-------------------------|
|-------------------------|
|-10h12p10--8h10p8--7h8p7-|
|-------------------------|
|-------------------------|

Now this is where the real guitars would start in a live show

[ Tab from: http://www.guitartabs.cc/tabs/c/chimaira/jade_tab.html ]
|---------------------------|------------------------------|
|---------------------------|------------------------------|
|-10---12----14-------------|-10---12----9-----------------|
|---------------------------|------------------------------|
|-8----10----12-------------|-8----10----7-----------------|
|---------------------------|------------------------------|
|---------------------------|------------------------------|

then a cool part
|----------------------------------------------------------|
|----------------------------------------------------------|
|----------------------------------------------------------|
|---10\9/10\9---9------------------------------------------|
|----------------------------------------------------------|
|---8\-7/8\-7---7------------------------------------------|
|----------------------------------------------------------|
                   "ah-ah-ah-ah jade"

then the verse
P.M.         ********************
|----------------------------------------------------------|
|----------------------------------------------------------|
|----------------------------------------------------------|
|----------------------------------------------------------|
|----------------------------------------------------------|
|-----------------0----------------------------------------|
|-0h1-----0h1-0-0---0-0-0-0-0-0-0--------------------------|
  1 e & a 2 e & a 3 e & a 4 e & a

the "chorus" I guess
|----------------------------------------------------------|
|----------------------------------------------------------|
|----------------------------------------------------------|
|----------------------------------------------------------|
|-0--------4--------3---------8----------10----------------|
|-0--------4--------3---------8----------10----------------|
|-0--------4--------3---------8----------10----------------|

the rest of the song is just open low A and Bb(low A;first fret)listen to it to figure
it out. . . CHIMAIRA RULES
Comments