Chimaira - Impossibility Of Reason Chords & Tabs

 

Impossibility Of Reason Chords & Tabs

Chimaira Chords & Tabs

Version: 1 Type: Tab 0 ratings
1 star 2 stars 3 stars 4 stars 5 stars
comments

Impossibility Of Reason Tab

Fun song to play. Tuning is CGCFAD

Intro
----------------------------------|
----------------------------------|
----------------------------------|
----------------------------------|
--6--6-6-6666--7--6-6-66-6-6------|
--6--6-6-6666--7--6-6-66-6-6------|

----------------------------------|
----------------------------------|
----------------------------------|
----------------------------------|
--7--7-7-7777--8--7-7-77-7-7------|
--7--7-7-7777--8--7-7-77-7-7------|

----------------------------------|
----------------------------------|
----------------------------------|
----------------------------------|
--6--6-6-6666--7--6-6-66-6-6------|
--6--6-6-6666--7--6-6-66-6-6------|

Verse
-----------------------------|
-----------------------------|
-----------------------------|
-----------------------------|
--6--6-6-6666--7--6-6--5h6---|
--6--6-6-6666--7--6-6--5h6---|

------------------------|
------------------------|
------------------------|
------------------------|
--7--7777--8--7-7-6h7---|
--7--7777--8--7-7-6h7---|

-----------------------------|
-----------------------------|
-----------------------------|
-----------------------------|
--6--6-6-6666--7--6-6--5h6---|
--6--6-6-6666--7--6-6--5h6---|
Pre Chorus
---------------------|
---------------------|
---------------------|
-----7---6-----------|
-0-0-5-0-4-0-6-7-7---|
-0-0---0---0-6-7-7---|

Chorus
-----------------------------|
-----------------------------|
-----------------------------|
-----------------------------|
-6--0000--6--0000--6--0000---|
-6--0000--6--0000--6--0000---|
[ Tab from: http://www.guitartabs.cc/tabs/c/chimaira/impossibility_of_reason_tab.html ]
Chorus Fill 1                    Fill 2
-----------------|               ----------------------|
-----------------|               ----------------------|
-------------4---|               ----------------------|
-----4-----------|               -------------4--------|
-5h6---6-5-4-----|               -5h6-5-4-3-2----------|
-----------------|               ----------------------|
Interlude             guitar 1
-------------------------------|
-------------------------------|
-------------------------------|
----------------------7--------|
------------------3---5--------|
--6-5-3--0--3-5-3---0----------|
                      guitar 2
-------------------------------|
-------------------------------|
------10----10/12-----12/10----|
------x-----x--x-------x-x-----|
-0-0--8--0--8/-10--0--10/8-----|
-0-0-----0---------0-----------|
                      guitar 1
-------------------------------|
-------------------------------|
-------------------------------|
----------------------------7--|
-------3----3\1--------3----5--|
-0h3h5----0------0h3p0----0----|

-------------------------------|
-------------------------------|
------10---10/12---12/14-------|
------x-----x-x-----x-x--------|
-0-0--8--0--8/10-0-10/12-------|
-0-0-----0-------0-------------|

Solo
------------------------------|
----------------------8p6-----|
--------------------------7---|
------------3-5p3h5-----------|
--------3-5-------------------|
--0-3-5-----------------------|

-------9------------------------------------------------|
-8b(9)---(9)r8-5-7-5h6p5--------------------------------|
-------------------------7--5---------------------------|
------------------------------8-7-5----7b(8)-7----------|
------------------------------------8-----------5-7-8---|
--------------------------------------------------------|

----10-12-12h13p1210p8h10---|-13p10p8h10h13p10p8--|
-10--------------------------|---------------------|
-----------------------------|---------------------|
-----------------------------|---------------------|
-----------------------------|---------------------|
-----------------------------|---------------------|

----------12p10h12--16b(17)-16b(17)r16-16-16b(17)r16-----|
---------------------------------------------------------|
-10p9p7v-------------------------------------------------|
---------------------------------------------------------|
---------------------------------------------------------|
---------------------------------------------------------|

-13----------12b(13)-13------------------------------------|
----15-13---------------10(11)r10-----------11-10----------|
----------13--------------------------10-12-------12p10----|
-----------------------------------12-------------------12-|
-----------------------------------------------------------|
-----------------------------------------------------------|

--------21----------22-24-20----|
-22b(23)(23)r22-20-------------|
--------------------------------|
--------------------------------|
--------------------------------|
--------------------------------|

-----------------------------------------------------------|
-6/8-8\6-6/11-11\9-9\8-8/13-13\11-11\9-9\8-8--8/13---13/15-|
-----------------------------------------------------------|
-----------------------------------------------------------|
-----------------------------------------------------------|
-----------------------------------------------------------|
Comments