Chimaira - Down Again Chords & Tabs

 

Down Again Chords & Tabs

Chimaira Chords & Tabs

Version: 3 Type: Tab 0 ratings
1 star 2 stars 3 stars 4 stars 5 stars
comments

Down Again Tab

banda - chimaira
cancion - Down again

esta bien chicles esta rola, riffs chidos y la rola igual

por mi-------> cenif        !cenif!

cenif@hotmail.com
-------------------------------------------------------------------------
-------------------------------------------------------------------------
-------------------------------------------------------------------------
-------------------------------------------------------------------------
---11-10-11-13-11-11-11-13-11-13-15-13-13-13-13-15-15-15-13-13-15-13-15^-
-------------------------------------------------------------------------


-------------------------------------------------------------------------
-------------------------------------------------------------------------
-------------------------------------------------------------------------
-------------------------------------------------------------------------
---11-10-11-13-11-11-11-13-11-13-15-13-13-13-13-15-15-15-13-13-15-13-15^-
-------------------------------------------------------------------------



----------------------------------------------------------------
----------------------------------------------------------------
---21-19-19/18-15-15-15-15-17-17-17-15-15-17-15-17^-------------
----------------------------------------------------------------
----------------------------------------------------------------
----------------------------------------------------------------


coro) lo ruuudoooo


----------------------------------------------|------------------
----------------------------------------------|------------------
----------------------------------------------|------------------
----------------------------------------------|------------------
--3331114443336441131134431-------------------|-----------3------
--3331114443336441131134431-------------------|-----------3------
pm               .. ..

[ Tab from: http://www.guitartabs.cc/tabs/c/chimaira/down_again_tab_ver_3.html ]
----------------------------------------------|------------------
----------------------------------------------|------------------
----------------------------------------------|------------------
----------------------------------------------|------------------
--3331114443336441131134431-------------------|-----------3------
--3331114443336441131134431-------------------|-----------3------
pm               .. ..




el verso???
--------------------------------|--------------------------------|---------
--------------------------------|--------------------------------|---------
--------------------------------|--------------------------------|---------
--------------------------------|--------------------------------|---------
---3-66666666-8888888-----------|-3333333333333--66666666-8888888|-1-------
---3----------------------------|-3333333333333------------------|-1-------
pm   >>>>>>>> >>>>>>>             .............  >>>>>>>> >>>>>>>



--------------------------------|--------------------------------|---------
--------------------------------|--------------------------------|---------
--------------------------------|--------------------------------|---------
--------------------------------|--------------------------------|---------
---3-66666666-8888888-----------|-3333333333333--66666666-8888888|-1-------
---3----------------------------|-3333333333333------------------|-1-------
pm   >>>>>>>> >>>>>>>             .............  >>>>>>>> >>>>>>>



el espacio antes del pianito
----------------------------------------------------------------|---
----------------------------------------------------------------|---
----------------------------------------------------------------|---
----------------------------------------------------------------|---
--11-10-11-13-11-11-11-11-10-6-15-15-15-16-16-16-15-15-16-15-17^|-1-
----------------------------------------------------------------|-1-


para terminar
-----------------|---------------
-----------------|---------------
-----------------|---------------
-----------------|---------------
-3-1-4-3-6-4.----|-111111-3------
-3-1-4-3-6-4.----|-111111-3------

cenif@hotmail.com
meroollllllll!!!!!!!!!!!!!

 ha hah ah ah a jaj aj aj ajxa xa xa gag ag a, se lo lavan
Comments