Chimaira - Cleansation Chords & Tabs

 

Cleansation Chords & Tabs

Chimaira Chords & Tabs

Version: 2 Type: Tab 0 ratings
1 star 2 stars 3 stars 4 stars 5 stars
comments

Cleansation Tab

   
Band:  Chimaira
Album: The Imposiblity Of Reason
Song:  Cleansation
Track: 1

Transcribed By: Aaron 2
Email:          toocool4skool_61@hotmail.com
pm  - palm mute           /  - slide up to
\  - slide down to
h  - hammer on           b  - Bend
p  - pull off

ph - pinched harmonic


   It's got everything except for solo
   and little fills and clean part


Tuning C G C F A D (Drop - C Tuning)

    Intro (Main Riff)
|---------------------- pm-------pm--------------ph------|
|---------------------- ---------------------------------|
|---------------------- ---------------------------------|
|---------------------- ----------------00000000-5-------|
|0--5--3--0--3--2--x9-- 0--5--3--0--3--2--------------x4-|
|0--5--3--0--3--2------ 0--5--3--0--3--2-----------------|

Verse riff x2

|pm-------pm-----------pm......------pm-------pm-----------pm.........--|
|-----------------------------------------------------------------------|
|-------------------h-----------------------------------h---------------|
|-----------------------------------------------------------------------|
|0--5--3--0--3--2--0-2-22-22-22--x3--0--5--3--0--3--2--0-2--------------|
|0--5--3--0--3--2--0-2-22-22-22------0--5--3--0--3--2--0-2-222-222-222--|
[ Tab from: http://www.guitartabs.cc/tabs/c/chimaira/cleansation_tab_ver_2.html ]
Chorus
|--pm....-------------------------------pm....-------------------------|
|----------------------------------------------------------------------|
|----------------------------------------------------------------------|
|---------------------------------------------3333333344444444---------|
|3-333333-------------------x2--------3-333333--------------------x2---|
|3-333333-3333333344444444------------3-333333-------------------------|

|-------------------------------------------------------|
|--pm.-------pm...----------------------pm.-------------|
|-------------------------------------------------------|
|------------------4------------------------------------|
|3-2-1-0-3-2-0-0-0-4-0--x4------------------4---x4------|
|3-2-1-0-3-2-0-0-0---0----------321-032-000--0----------|

Intro to Verse
|-------------------pm-------pm------ -------------------------------------------|
|----------------- ------------------ -------------------------------------------|
|----------------- ------------------ -------------------------------------------|
|----------------- ------------------ -------------------------------------------|
|0--5--3--0--3--2- -0--5--3--0--3--2- -0--5--3--0--3-2-x2-0-17-15-0-15-14---x4---|
|0--5--2--0--2--2- -0--5--3--0--3--2- -0--5--3--0--3-2----0-17-15-0-15-14--------|

 Then you play the Verse

I haven't figured clean guitar

 Bridge

|-----------------------------------------------------------------|
|-----------------------------------------------------------------|
|-----------------------------------------------------------------|
|-----------------------------------------------------------------|
|-3-333333------------------x4-----------------------------x4-----|
|-3-333333-3333333344444444--------1-11-1-1111111122222222--------|

  Then you play the chorus riff
  Then you play the intro to verse riff once
  Finally you play the intro riff but only playing the notes on the low C string
Comments