Chimaira - Cleansation Chords & Tabs

 

Cleansation Chords & Tabs

Chimaira Chords & Tabs

Version: 1 Type: Bass Tab 0 ratings
1 star 2 stars 3 stars 4 stars 5 stars
comments

Cleansation Bass Tab

   
band-chimairaband-chimaira
song name-cleansation
tuning-e,a,d,g  [standard]
played with pick or with fingers
info-this tab is good for intermediate players and i really couldnt be bothered with
breaking this song up so im gunna put all of it on.
legend-   \-slide
          b-bend
          p-palm mute


e|-454-232-454-232-454-232-454-232-454-232-454-232-454-232---------|
a|-----------------------------------------------------------------|
d|-----------------------------------------------------------------| x1
g|-----------------------------------------------------------------|


e|-343-232-33333---------------------------------------------------|
a|--------------3b-------------------------------------------------|
d|-----------------------------------------------------------------| x4
g|-----------------------------------------------------------------|

                                                                   ----
                                                                       |
e|-454-232-2\44444-454-232-2\44444---------------------------------    |
a|-----------------------------------------------------------------    |
d|----------------------------------------------------------------- x2 |
g|-----------------------------------------------------------------    |
                                                                       | x2
                                                                       |
e|-0p0p0p----------------------------------------------------------    |
a|-----------------------------------------------------------------    |
d|----------------------------------------------------------------- x1 |
g|-----------------------------------------------------------------    |
                                                                       |
                                                                   ----

e|-3-3-3-3-3-3-----------------------------------------------------|
a|------------1-1-1-1-1-1-1-2-2-2-2-2-2----------------------------|
d|-----------------------------------------------------------------| x4
g|-----------------------------------------------------------------|


e|-5-4-3-0-5-4-0-3-4-----------------------------------------------|
a|------------------4-3--------------------------------------------|
d|-----------------------------------------------------------------| x9
g|-----------------------------------------------------------------|

[ Tab from: http://www.guitartabs.cc/tabs/c/chimaira/cleansation_btab.html ]
e|-454-232-454-232-454-232-454-232-454-232-454-232-454-232---------|
a|-----------------------------------------------------------------|
d|-----------------------------------------------------------------| x1
g|-----------------------------------------------------------------|


e|-5-4-3-0-5-4-0-3-4-----------------------------------------------|
a|------------------4-3--------------------------------------------|
d|-----------------------------------------------------------------| x9
g|-----------------------------------------------------------------|

during solo
e|-3-3-3-3-3-3-----------------------------------------------------|
a|-------------1-1-1-1-1-1-2-2-2-2-2-2-----------------------------|
d|-----------------------------------------------------------------| x8
g|-----------------------------------------------------------------|

after solo
e|-3-3-3-3-3-3-----------------------------------------------------|
a|-------------1-1-1-1-1-1-2-2-2-2-2-2-----------------------------|
d|-----------------------------------------------------------------| x4
g|-----------------------------------------------------------------|


e|-5-4-3-0-5-4-0-4-5-----------------------------------------------|
a|------------------4-3--------------------------------------------|
d|-----------------------------------------------------------------| x9
g|-----------------------------------------------------------------|


e|-0-0-3-0-0-2-----------------------------------------------------|
a|-----------------------------------------------------------------|
d|-----------------------------------------------------------------| x1
g|-----------------------------------------------------------------|


e|-454-232-454-232-454-232-454-232-454-232-454-232-----------------|
a|-----------------------------------------------------------------|
d|-----------------------------------------------------------------| x1
g|-----------------------------------------------------------------|


e|-454-232-454-232-454-232-454-232-454-232-454-232-454-232---------|
a|-----------------------------------------------------------------|
d|-----------------------------------------------------------------| x1
g|-----------------------------------------------------------------|


e|-454-232-454-232-454-232-454-232-454-232-454-232-----------------|
a|-----------------------------------------------------------------|
d|-----------------------------------------------------------------| x1
g|-----------------------------------------------------------------|


e|003-002-003-002--------------------------------------------------|
a|-----------------------------------------------------------------|
d|-----------------------------------------------------------------| x1
g|-----------------------------------------------------------------|


done by jake cook
Comments