Children Of Bodom - Youre Better Off Dead Chords & Tabs

 

Youre Better Off Dead Chords & Tabs

Children Of Bodom Chords & Tabs

Version: 1 Type: Tab 0 ratings
1 star 2 stars 3 stars 4 stars 5 stars
comments

Youre Better Off Dead Tab

-------------------------------------------------------------------------------
		You're Better off Dead - Children of Bodom
-------------------------------------------------------------------------------
Tabbed by:metal_miltia16
Email:iamtherealelvis@hotmail.com

Tuning:DGCFAD
  sorry, can't figure out the solos (TOO COMPLEX!!!)

e|-----------|-----------|-----------|---------------|
B|-----------|-----------|-----------|---------------|
G|-----------|-----------|-----------|---------------|
D|-----------|---------7-|-----------|---------------|
A|-4---4---5-|-4---4---5-|-4---4---5-|---------------|
E|-2-0-2-0-3-|-2-0-2-0---|-2-0-2-0-3-|-22222222222222|


e|-----------|-----------|-----------|-----------------|
B|-----------|-----------|-----------|-----------------|
G|-----------|-----------|-----------|----------8-10-9~|
D|-----------|---------7-|-----------|-7-10-9-7--------|
A|-4---4---5-|-4---4---5-|-4---4---5-|-----------------|
E|-2-0-2-0-3-|-2-0-2-0---|-2-0-2-0-3-|-----------------|


e|-----------|-----------|-----------|---------------|
B|-----------|-----------|-----------|---------------|
G|-----------|-----------|-----------|---------------|
D|-----------|---------7-|-----------|---------------|
A|-4---4---5-|-4---4---5-|-4---4---5-|---------------|
E|-2-0-2-0-3-|-2-0-2-0---|-2-0-2-0-3-|-22222233332222|

e|-----------|-----------|-----------|-----------------|
B|-----------|-----------|-----------|-----------------|
G|-----------|-----------|-----------|----------8-10-9~|
D|-----------|---------7-|-----------|-7-10-9-7--------|
A|-4---4---5-|-4---4---5-|-4---4---5-|-----------------|
E|-2-0-2-0-3-|-2-0-2-0---|-2-0-2-0-3-|-----------------|

e|---------|-------------|--------------|-----------|---------------|
B|---------|-------------|--------------|-----------|---------------|
G|---------|-------------|--------------|-----------|---------------|
D|---------|-------------|--------------|-----------|-------5---7-5-|
A|-4--4----|---------4-4-|----5-5-5-2-2-|--4--3-4---|--4-4--3-5-5-3-|
E|-2--2----|--2-2-2--2-2-|--------------|--2--1-2---|--2-2----3-----|

e|-----------|-----------|-----------|---------------|
B|-----------|-----------|-----------|---------------|
G|-----------|-----------|-----------|---------------|
D|-----------|---------7-|-----------|---------------|
A|-4---4---5-|-4---4---5-|-4---4---5-|---------------|
E|-2-0-2-0-3-|-2-0-2-0---|-2-0-2-0-3-|-22222233332222|

e|-----------|-----------|-----------|-----------------|
B|-----------|-----------|-----------|-----------------|
G|-----------|-----------|-----------|----------8-10-9~|
D|-----------|---------7-|-----------|-7-10-9-7--------|
A|-4---4---5-|-4---4---5-|-4---4---5-|-----------------|
E|-2-0-2-0-3-|-2-0-2-0---|-2-0-2-0-3-|-----------------|
[ Tab from: http://www.guitartabs.cc/tabs/c/children_of_bodom/youre_better_off_dead_tab.html ]
                                                                  artifical harmonic
e|-----------|-----------|-----------------------|-----------|--------------------|
B|-----------|-----------|-----------------------|-----------|------10~-----------|
G|-9---7-7-7-|-9---5-----|-----------------------|-9---7-7-7-|-9------------------|
D|-9---7-7-7-|-9---5-5-5-|-----------------------|-9---7-7-7-|-9------------------|
A|-7-7-5-5-5-|-7-7-3-3-3-|-55-77-55-88-33-55-33--|-7-7-5-5-5-|-7-7----------------|
E|-----------|-----------|-----------------------|-----------|--------------------|
                          palm mute............. 
e|--------------------------|-------------------------|------9-14-10-14-0-14---
B|--------------------------|-9-7-9-10~-10-10-9-10/17-|9-7-9-------------------
G|--------------------------|-------------------------|------------------------
D|----------------77----88--|-------------------------|------------------------
A|-55-77-55-88-55----55-----|-------------------------|------------------------
E|--------------------------|-------------------------|------------------------
                                 AH
e|-10-14-0-14-10-14-0-14-|--------------------------|------9-14-10-14-0-14----
B|-----------------------|-9-7-9-10~-10-10-9-10-17\-|9-7-9--------------------
G|-----------------------|--------------------------|-------------------------
D|-----------------------|--------------------------|-------------------------
A|-----------------------|--------------------------|-------------------------
E|-----------------------|--------------------------|-------------------------

e|-10-14-0-14-9-14-10-14-14-12-10-------------------|
B|--------------------------------14-12-10-12-14-16-|
G|--------------------------------------------------|
D|--------------------------------------------------|
A|--------------------------------------------------|
E|--------------------------------------------------|

e|----------17----------17---------------------------------------------------|
B|-19-15-19----21-17-21--------just-do---------------------------------------|
G|---------------------------some-sweep picking,-----------------------------|
D|--------------------------i can't figure this out--------------------------|
A|---------------------------------------------------------------------------|
E|---------------------------------------------------------------------------|
                     X2
e|---------------------|-----------------|----------|-----------|-------------|
B|-0-----------------0-|-----------------|----------|-----------|-------------|
G|---------------------|-----------------|-9----8-7-|-7-6--6-5--|-------------|
D|-0-----------------0-|-----------------|-9----8-7-|-7-6--6-5--|-2-----------|
A|---------------------|-7-7-7-7-7-7-7-7-|-7----6-5-|-5-4--4-3--|-2-----------|
E|---0-0-0-0-0-0-0-0---|-0-0-0-0-0-0-0-0-|----------|-----------|-0--22-33-11-|

e|-----------------------|-------------------------------------------------------|
B|-0---------------------|-------------------------------------------------------|
G|-----------------------|-------------------------------------------------------|
D|-0---------------------|-------------------------------------------------------|
A|----------10-7-9-6-8-5-|---7-12-12-5-5-(7--------------------------------------|
E|--0-0-0-0--------------|-------------------------------------------------------|
Comments