Children Of Bodom - Taste Of My Scythe Chords & Tabs

 

Taste Of My Scythe Chords & Tabs

Children Of Bodom Chords & Tabs

Version: 2 Type: Tab 0 ratings
1 star 2 stars 3 stars 4 stars 5 stars
comments

Taste Of My Scythe Tab

----------------------------------------------------------------------------
                Taste of my scythe:Children of bodom
----------------------------------------------------------------------------

Tune all strings down 1 step
D||------------------------|------------------|------------------------|
A||------------------------|------------------|------------------------|
F||------------------------|------------------|------------------------|
C||---------------2--------|------------------|---------------2--------|
G||----5-5-5--5-5-2--------|------------------|----5-5-5--5-5-2--------|
D||----3-3-3--3-3-0--------|------------------|----3-3-3--3-3-0--------|



------------------|------------------------|------------------|
------------------|------------------------|------------------|
------------------|------------------------|------------------|
------------------|----8-8-8--8-8-2--------|------------------|
------------------|----7-7-7--7-7-2--------|------------------|
------------------|---------------0--------|------------------|



--------------------------|------------------|------------------------|
--------------------------|------------------|------------------------|
--------------------------|------------------|---------------7--------|
------8-8-8--8-8-2--------|------------------|----8-8-8--8-8-7--------|
--2-2-7-7-7--7-7-2--------|------------------|----7-7-7--7-7-5--------|
--0-0-0-0-0--0-0-0--------|------------------|----0-0-0--0-0----------|



------------------------|---------------------|-----------------------------
------------------------|---------------------|-----------------------------
---------------7--------|---------------------|-----------------------------
----2-2-2--2-2-7--------|----3--5-------------|----5-5-5--5-5-3-3-3-3---2-2-
----3-3-3--3-3-5--------|----1--3----5--------|----3-3-3--3-3-5-5-5-5---3-3-
------------------------|---------------------|-----------------------------



--------------|------------------------------------|
--------17~---|------------------------------------|
--------------|------------------------------------|
--2-2---------|------9-------7-------9-------------|
--3-3---------|--------7-------7-------7-----------|
--------------|--0-0-----0-0-----0-0-----0-0-0-0-0-|



------------------------------------|------------------------------------|
------------------------------------|------------------------------------|
------------------------------------|------------------------------------|
------9-------7-------9-------------|------9-------7-------9-------------|
--------7-------7-------7-----------|--------7-------7-------7-----------|
--0-0-----0-0-----0-0-----0-0-0-0-0-|--0-0-----0-0-----0-0-----0-0-0-0-0-|



----------------------------------|--------------------------|
------------------------------7-8-|--17-15-17----------------|
------------------5-----5-7-9-----|-----------17-16-14-------|
------9-------7-----7-9-----------|--------------------17-16-|
--------7-------7-----------------|--------------------------|
--0-0-----0-0---------------------|--------------------------|



----------------------------------|----------------------------------|
----------------------------------|----------------------------------|
----------------------------------|----------------------------------|
------9---------------9-----------|------9---7---7---5---5---7---7---|
--------7-----7---------7---------|--------7---9---9---5---5---9---9-|
--0-0-----0-0---7-0-0-----0-0-8-8-|--0-0-----------------------------|



----------------------------------|-------------------------------|
----------------------------------|-------------------------8--7--|
----------------------------------|----------------------9--------|
------9---------------9-----------|------9---7---7----------------|
--------7-----7---------7---------|--------7---9---9--------------|
--0-0-----0-0---7-0-0-----0-0-8-8-|--0-0--------------------------|



----------------------------------|----------------------------------|
----------------------------------|----------------------------------|
----------------------------------|----------------------------------|
------9---------------9-----------|------9---7---7---5---5---7---7---|
--------7-----7---------7---------|--------7---9---9---5---5---9---9-|
--0-0-----0-0---7-0-0-----0-0-8-8-|--0-0-----------------------------|



----------------------------------|------------------------------------|
----------------------------------|---------------------8--7--------7--|
----------------------------------|------------------9--------9--8-----|
------9---------------9-----------|------9---7---7---------------------|
--------7-----7---------7---------|--------7---9---9-------------------|
--0-0-----0-0---7-0-0-----0-0-8-8-|--0-0-------------------------------|



------------------------------------|
------------------------------------|
------------------------------------|
--9--6------------------------------|
------------8-8-8-8-8-8-7-7-7-7-7-7-|
------------------------------------|



-------------------------------------------|
-------------------------------------------|
-------------------------------------------|
-------------------------------------------|
--5-5-5-5-5-5-8-8-8-8-8-8-7-7-7-7-7-7-5----|
-------------------------------------------|



--------------------------------------------|-------------------------------
--------------------------------------------|-------------------------------
--------------------------------------------|-------------------------------
--0--3--------------------------------------|--------------------------7----
--1--5--8-8-8-8-8-8-7-7-7-7-7-7-5-5-5-5-5-5-|--8-8-8-8-8-8-7-7-7-7-7-7-5----
--------------------------------------------|-------------------------------



--12--15--14----------19--20--17--|--19--22--------------------------|
--------------15--17--------------|----------22--19--20--17--19------|
----------------------------------|------------------------------19--|
----------------------------------|----------------------------------|
----------------------------------|----------------------------------|
----------------------------------|----------------------------------|



--12--15--14----------19--20--17--|--19--22--------------------------|
--------------15--17--------------|----------22--19--20--17--19------|
----------------------------------|------------------------------19--|
----------------------------------|----------------------------------|
----------------------------------|----------------------------------|
----------------------------------|----------------------------------|



------------------------------|--------------3--2--3----------|
--17/-------------------------|-----------5-----------4--5----|
------------------------------|--------4----------------------|
--------4--4--4------1--1--1--|--2--5-------------------------|
--------5--5--5------3--3--3--|-------------------------------|
------------------------------|-------------------------------|



----------------------------------------|
----------------------------------------|
--12-11-9----9----9-11-12--12--11-9-----|
----------12---12-------------------12--|
----------------------------------------|
----------------------------------------|



----------------------------------------|
--10-12-12-10----12-10------------------|
--------------12-------12-11-9-----9----|
-------------------------------12-------|
----------------------------------------|
----------------------------------------|



----------------------------------------|
----------------------------------------|
--12-11-9----9----9-11-12--12--11-9-----|
----------12---12-------------------12--|
----------------------------------------|
----------------------------------------|



----------------------------------------|
--10-12-12-10----12-10------------------|
--------------12-------12-11-9-----9----|
-------------------------------12-------|
----------------------------------------|
----------------------------------------|



----------------------------------------|
----------------------------------------|
--12-11-9----9----9-11-12--12--11-9-----|
----------12---12-------------------12--|
----------------------------------------|
----------------------------------------|



----------------------------------------|
--10-12-12-10----12-10------------------|
--------------12-------12-11-9-----9----|
-------------------------------12-------|
----------------------------------------|
----------------------------------------|



----------------------------------------|
----------------------------------------|
--12-11-9----9----9-11-12--12--11-9-----|
----------12---12-------------------12--|
----------------------------------------|
----------------------------------------|



---------------------------------------|------------------------------------
--10-12-12-10----12-10-----------------|------------------------------------
--------------12-------12-11-9---------|------------------------------------
-------------------------------12------|------------------------------------
---------------------------------------|--7-7-10-7-7-7------7-7-10-7-7-7-7-7
---------------------------------------|---------------10-7-----------------


[ Tab from: http://www.guitartabs.cc/tabs/c/children_of_bodom/taste_of_my_scythe_tab_ver_2.html ]
-------------------------------------|----------------------------------|
-------------------------------------|----------------------------------|
-------------------------------------|----------------------------------|
-------------------------------------|--5-2-------------5-2-------------|
--7-7-10-7-7-7------7-7-10-7-7-7-7-7-|----------5-2---------------------|
---------------10-7------------------|------0-0-----0-0-----0-0-0-0-0-0-|



--------------------------------------|----------------------------------|
--------------17-15-17----------------|----------------------------------|
-----------------------17-16-14-------|----------------------------------|
--1-1---4-4---------------------17-16-|------9---------------9-----------|
--3-3---5-5---------------------------|--------7-----7---------7---------|
--------------------------------------|--0-0-----0-0---7-0-0-----0-0-8-8-|



----------------------------------|----------------------------------|
----------------------------------|----------------------------------|
----------------------------------|----------------------------------|
------9---7---7---5---5---7---7---|------9---------------9-----------|
--------7---9---9---5---5---9---9-|--------7-----7---------7---------|
--0-0-----------------------------|--0-0-----0-0---7-0-0-----0-0-8-8-|



-------------------------------|----------------------------------|
-------------------------8--7--|----------------------------------|
----------------------9--------|----------------------------------|
------9---7---7----------------|------9---------------9-----------|
--------7---9---9--------------|--------7-----7---------7---------|
--0-0--------------------------|--0-0-----0-0---7-0-0-----0-0-8-8-|



----------------------------------|----------------------------------|
----------------------------------|----------------------------------|
----------------------------------|----------------------------------|
------9---7---7---5---5---7---7---|------9---------------9-----------|
--------7---9---9---5---5---9---9-|--------7-----7---------7---------|
--0-0-----------------------------|--0-0-----0-0---7-0-0-----0-0-8-8-|



--------------------------|--------------------------------------------|
--------------------------|--------------------------------------------|
--------------------------|--------------------------------------------|
------9---7---7-----------|--7--9--------------------------------------|
--------7---9---9---------|--5--7--7-7-7-7-7-7-7-7-7-7-7-7-5-5-5-5-5-5-|
--0-0---------------------|--------------------------------------------|



-------------------------------------------|
-------------------------------------------|
-------------------------------------------|
--------------------------------------9----|
--3-3-3-3-3-3-7-7-7-7-7-7-5-5-5-5-5-5-7----|
-------------------------------------------|



--------------------------------------------|
--------------------------------------------|
--------------------------------------------|
--7--9--------------------------------------|
--5--7--7-7-7-7-7-7-7-7-7-7-7-7-5-5-5-5-5-5-|
--------------------------------------------|



-------------------------------------------|------17--16----------21--22--19
-------------------------------------------|--19----------17--19------------
-------------------------------------------|--------------------------------
--------------------------------------9----|--------------------------------
--3-3-3-3-3-3-7-7-7-7-7-7-5-5-5-5-5-5-7----|--------------------------------
-------------------------------------------|--------------------------------



--21--24--19----------------------|------17--16----------21--22--19--|
--------------21--22--19--21------|--19----------17--19--------------|
------------------------------21--|----------------------------------|
----------------------------------|----------------------------------|
----------------------------------|----------------------------------|
----------------------------------|----------------------------------|



--21--24--19----------------------|------------------------------|
--------------21--22--19--21------|--19~-------------------------|
------------------------------21--|------------------------------|
----------------------------------|--------6--6--6------3--3--3--|
----------------------------------|--------7--7--7------5--5--5--|
----------------------------------|------------------------------|



------------------------|----------------------------------------|
------------------------|----------------------------------------|
-------------------6~---|--12-11-9----9----9-11-12--12--11-9-----|
----------6-----3-------|----------12---12-------------------12--|
-------------4----------|----------------------------------------|
------------------------|----------------------------------------|



----------------------------------------|
--10-12-12-10----12-10------------------|
--------------12-------12-11-9-----9----|
-------------------------------12-------|
----------------------------------------|
----------------------------------------|



----------------------------------------|
----------------------------------------|
--12-11-9----9----9-11-12--12--11-9-----|
----------12---12-------------------12--|
----------------------------------------|
----------------------------------------|



--------------------------------------------12----|
--10-12-12-10----12-10-------------12-13-15-------|
--------------12-------12-11-12-14----------------|
--------------------------------------------------|
--------------------------------------------------|
--------------------------------------------------|



----------------------------------------|
----------------------------------------|
--12-11-9----9----9-11-12--12--11-9-----|
----------12---12-------------------12--|
----------------------------------------|
----------------------------------------|



----------------------------------------|
--10-12-12-10----12-10------------------|
--------------12-------12-11-9-----9----|
-------------------------------12-------|
----------------------------------------|
----------------------------------------|



----------------------------------------|-----------------------------|
----------------------------------------|-----------------------------|
--12-11-9----9----9-11-12--12--11-9-----|----------------11-----------|
----------12---12-------------------12--|--9---11---12---9----12--11--|
----------------------------------------|--7---9----10--------10--9---|
----------------------------------------|-----------------------------|



------------------------|------------------------|------------------------|
------------------------|------------------------|------------------------|
------------------------|------------------------|------------------------|
--9----------8-8-8--8-8-|--2----------8-8-8--8-8-|--7----------5-5-5--5-5-|
--7----------7-7-7--7-7-|--2----------7-7-7--7-7-|--5----------3-3-3--3-3-|
------------------------|--0---------------------|------------------------|



---------------------|------------------------|---------------------|
---------------------|------------------------|---------------------|
---------------------|------------------------|---------------------|
--7----------3--5----|--7----------5-5-5--5-5-|--7----------3--5----|
--5----------1--3----|--5----------3-3-3--3-3-|--5----------1--3----|
---------------------|------------------------|---------------------|



------------------------|---------------------|------------------------|
------------------------|---------------------|------------------------|
------------------------|---------------------|------------------------|
--9----------7-7-7--7-7-|--9----------5--7----|--9----------7-7-7--7-7-|
--7----------5-5-5--5-5-|--7----------3--5----|--7----------5-5-5--5-5-|
------------------------|---------------------|------------------------|



-----------------------------|-------------------------------------|
-----------------------------|-------------------------------------|
-----------------------------|-------------------------------------|
--2-2-2-2--2--2--2--2--2-2-2-|-------------------------------------|
--2-2-2-2--2--2--2--2--2-2-2-|--7-7-10-7-7-7------7-7-10-7-7-7-7-7-|
--0-0-0-0--0--0--0--0--0-0-0-|---------------10-7------------------|



-------------------------------------|----------------------------------|
-------------------------------------|----------------------------------|
-------------------------------------|----------------------------------|
-------------------------------------|--5-2-------------5-2-------------|
--7-7-10-7-7-7------7-7-10-7-7-7-7-7-|----------5-2---------------------|
---------------10-7------------------|------0-0-----0-0-----0-0-0-0-0-0-|



-------------------------------------|-------------------------------------|
-------------------------------------|-------------------------------------|
-------------------------------------|-------------------------------------|
-------------------------------------|-------------------------------------|
--10-7--------------10-7-------------|------10-7--------------10-7---------|
-------0-0-10-7-0-0------0-0-0-0-0-0-|--0-0------0-0-10-7-0-0------0-0-0-0-|



-------------------------------------|----------------------------------|
-------------------------------------|----------------------------------|
-------------------------------------|----------------------------------|
-------------------------------------|--5-2-------------5-2-------------|
------10-7--------------10-7---------|----------5-2---------------------|
--0-0------0-0-10-7-0-0------0-0-0-0-|------0-0-----0-0-----0-0-0-0-0-0-|



--------------------------------------|---------------------||
--------------------------------------|---------------------||
--------------------9-9-9-9--9-9-9-9--|--3--------7--9------||
--------------------9-9-9-9--9-9-9-9--|--3--------7--9------||
--10-7--------------7-7-7-7--7-7-7-7--|--1--------5--7------||
-------0-0-10-7-0-0-------------------|---------------------||
Comments