Children Of Bodom - Sixpounder Chords & Tabs

 

Sixpounder Chords & Tabs

Children Of Bodom Chords & Tabs

Version: 3 Type: Tab 0 ratings
1 star 2 stars 3 stars 4 stars 5 stars
comments

Sixpounder Tab

The second solo

 ||----------------------------------------|
A||----------------16----------18----------|
F||--17------17-19----19-17-15----19-17-15-|
C||----------------------------------------|
G||----------------------------------------|
D||----------------------------------------|


                                                   
--18----------20-18-15-20-18-15-------------------|
-----20-18-16-------------------18-16-20-18-16----|
-----------------------------------------------19-|
--------------------------------------------------|
--------------------------------------------------|
--------------------------------------------------|


                                         
----------------------------------------|
----------------16----------18----------|
--17------17-19----19-17-15----19-17-15-|
----------------------------------------|
----------------------------------------|
----------------------------------------|


                                                   
--18----------------------------------------------|
-----20----------------20-------------18----------|
--------19----------19-------------19----19-------|
-----------20-17-20-------------19----------19----|
--------------------------17-20----------------20-|
--------------------------------------------------|


                                         
----------------------------------------|
----------------17----------19----------|
--18------18-20----20-18-16----20-18-16-|
----------------------------------------|
----------------------------------------|
----------------------------------------|


                                                   
--19----------21-19-16-21-19-16-------------------|
-----21-19-17-------------------19-17-21-19-17----|
-----------------------------------------------20-|
--------------------------------------------------|
--------------------------------------------------|
--------------------------------------------------|

[ Tab from: http://www.guitartabs.cc/tabs/c/children_of_bodom/sixpounder_tab_ver_3.html ]
                                         
----------------------------------------|
----------------17----------19----------|
--18------18-20----20-18-16----20-18-16-|
----------------------------------------|
----------------------------------------|
----------------------------------------|


                                                   
--19----------------------------------------------|
-----21----------------21-------------19----------|
--------20----------20-------------20----20-------|
-----------21-18-21-------------20----------20----|
--------------------------18-21----------------21-|
--------------------------------------------------|


                                         
----------------------------------------|
----------------18----------20----------|
--19------19-21----21-19-17----21-19-17-|
----------------------------------------|
----------------------------------------|
----------------------------------------|


                                                   
--20----------22-20-17-22-20-17-------------------|
-----22-20-18-------------------20-18-22-20-18----|
-----------------------------------------------21-|
--------------------------------------------------|
--------------------------------------------------|
--------------------------------------------------|


                                         
----------------------------------------|
----------15-17-18-17-15----------------|
--19---------------------17-15-14-17-15-|
----------------------------------------|
----------------------------------------|
----------------------------------------|


                                                                      
-----------------------------------------------|--------------------||
-----------------------------------------------|--------------------||
--14-------------------12-14--12h14h12---------|--------------------||
-----17-15-14-12-14-15-----------------15--14--|--12~---------------||
-----------------------------------------------|--------------------||
-----------------------------------------------|--------------------||
Comments