Children Of Bodom - Sixpounder Chords & Tabs

 

Sixpounder Chords & Tabs

Children Of Bodom Chords & Tabs

Version: 2 Type: Tab 0 ratings
1 star 2 stars 3 stars 4 stars 5 stars
comments

Sixpounder Tab

   
			     Sixpounder Intro - Children Of Bodom
-------------------------------------------------------------------------------
Tabbed by:Bodom_Shredder9
Email:Smash_daddie777@yahoo.com

Tuning:Drop D

e|--------------------------------------------------------------------------|
B|--------------------------------------------------------------------------|
G|--------------------------------------------------------------------------|
D|-----------------------7-----7-----------------------------5\4------------|
A|-0-6-5-3-0-4-3-1-0-0-0-5-0-0-5-0-6-5-3-0-4-3-1-0-0-2/3-0-0-3\2------------|
E|-0-6-5-3-0-4-3-1-0-0-0---0-0---0-6-5-3-0-4-3-1-0-0-2/3-0-0----------------|
                   . . .   . .                   . .     . .
e|--------------------------------------------------------------------------|
B|--------------------------------------------------------------------------|
G|--------------------------------------------------------------------------|
D|-----------------------7-----7-----------------------------5\4------------|
A|-0-6-5-3-0-4-3-1-0-0-0-5-0-0-5-0-6-5-3-0-4-3-1-0-0-2/3-0-0-3\2------------|
E|-0-6-5-3-0-4-3-1-0-0-0---0-0---0-6-5-3-0-4-3-1-0-0-2/3-0-0----------------|
                   . . .   . .                   . .     . .
e|--------------------------------------------------------------------------|
B|--------------------------------------------------------------------------|
G|--------------------------------------------------------------------------|
D|--------------------------------------------------------------------------|
A|-0-X\---------------------------------------------------------------------|
E|-0-X\---------------------------------------------------------------------|
[ Tab from: http://www.guitartabs.cc/tabs/c/children_of_bodom/sixpounder_tab_ver_2.html ]
e|--------------------------------------------------------------------------|
B|--------------------------------------------------------------------------|
G|--------------------------------------------------------------------------|
D|--------------------------------------------------------------------------|
A|-2-2-22-2-2-2-22-2-2-2-22-2-2-2-22-2-2-2-22-2-2-2-22-2-2-2-22-2-2-2-<5>---|
E|-2-2-22-2-2-2-22-2-2-2-22-2-2-2-22-2-2-2-22-2-2-2-22-2-2-2-22-2-2-2-------|
   . . .. . . . .. . . . .. . . . .. . . . .. . . . .. . . . .. . . .
e|--------------------------------------------------------------------------|
B|--------------------------------------------------------------------------|
G|--------------------------------------------------------------------------|
D|-7-----7-9-7-----5-7------------------5-----------------------------------|
A|-5-5-5-5-7-5-5-5-3-5-5-55-5-5-5-55-55-3-----------------------------------|
E|--------------------------------------------------------------------------|
     . .       . .     . .. . . . .. ..
e|--------------------------------------------------------------------------|
B|--------------------------------------------------------------------------|
G|--------------------------------------------------------7(9)trill---------|
D|-7-----7-9-7-----5-7---------------------------7(9)trill------------------|
A|-5-5-5-5-7-5-5-5-3-5-5-55-5-5-5-55-55-7(8)trill---------------------------|
E|--------------------------------------------------------------------------|
     . .       . .     . .. . . . .. ..
e|--------------------------------------------------------------------------|
B|--------------------------------------------------------------------------|
G|--------------------------------------------------------------------------|
D|--------------------------------------------------------------------------|
A|-0--0-1-1-0-0--3333-0000-----0--0-1-1--0--0--0000-0-0-3-------------------|
E|-0--0-1-1-0-0----------------0--0-1-1--0--0--0000-0-0---------------------|
        . .                         . .        ....

That's all ive figured out so far ill try to get more.
| . palm mute
| /  slide up
| \  slide down
| h  hammer-on
| p  pull-off
| ~  vibrato
| +  harmonic
| x\ picksrcape
============================================================================
Comments