Children Of Bodom - Silent Night Bodom Night Chords & Tabs

 

Silent Night Bodom Night Chords & Tabs

Children Of Bodom Chords & Tabs

Version: 4 Type: Tab 0 ratings
1 star 2 stars 3 stars 4 stars 5 stars
comments

Silent Night Bodom Night Tab

   
Song: Silent, Night Bodom Night
Artist: Children of Bodom
Album: Hatebreeder (1999)

Gtr I (E A D G B E) - 'Alexi'
Gtr II (D A D G B E) - 'Alexander'

Please E-mail any suggestions/comments/fixes to DeThRoNeD ChRiSt@aol.com

Key:
n(n) = Tapped harmonic

  Gtr I
|-----------------------------|---------------------|-------------|
|-----------------------------|---------------------|-------------|
|-----------------------------|---------------------|-------------|
|-0-0--0-0-0--0-0-0--0-0-0--0-|-0-------------3--2--|-3-----------|
|-----------------------------|--------0------------|----5--7-----|
|-----------------------------|---------------------|----------8--|
|
| Gtr II
|-----------------------------|---------------------|-------------|
|-3-3--3-3-3--3-3-3--3-3-3--3-|---------------------|-------------|
|-2-2--2-2-2--2-2-2--2-2-2--2-|---------------5--4--|-2-----------|
|-0-0--0-0-0--0-0-0--0-0-0--0-|-0-0--0-0-0--0-3--2--|-0-----5-----|
|-----------------------------|---------------------|-------3-----|
|-----------------------------|---------------------|-------------|


|-----------|-----------------------------------------|
|-----------|-----------------------------------------|
|-----------|-----------------------------------------|
|-----------|-----------------------------------------|
|-----------|-----------------------------------------|
|-10--------|-10-10--10-10-10--10-10-10--10-10-10--10-|
|
|-----------|-----------------------------------------|
|-----------|-----------------------------------------|
|--2--------|--2--2---2--2--2---2--2--2---2--2--2---2-|
|--0--------|--0--0---0--0--0---0--0--0---0--0--0---0-|
|-----------|-----------------------------------------|
|-----------|-----------------------------------------|


|--------------------------|
|--------------------------|
|--------------------------|
|-----------------12--14---|
|---------12---------------|
|-10-----------------------|
|
|--------------------------|
|--------------------------|
|--2-2--2--2-2--2--2-------|
|--0-0--0--0-0--0--0---5---|
|----------------------3---|
|--------------------------|


|----------------|----------|------------------------------|
|----------------|----------|-6-------------8--------------|
|-14--12--10--9--|-7--------|-7-7--7-7-7--7-9-7--7-7-7--7--|
|----------------|----------|---7--7-7-7--7---7--7-7-7--7--|
|----------------|----------|------------------------------|
|----------------|----------|------------------------------|
|
|----------------|----------|------------------------------|
|----------------|----------|-3-3--3-3-3--3-3-3--3-3-3--3--|
|----------------|-2--------|-2-2--2-2-2--2-2-2--2-2-2--2--|
|----------------|-0--------|-0-0--0-0-0--0-0-0--0-0-0--0--|
|--1-------0--3--|----------|------------------------------|
|------3---------|----------|------------------------------|


|-5----------------3--|-1-----------|-------------|
|-6-------------5-----|----3--5-----|-3--------3--|
|---7--7-7-7--7-------|----------5--|----------2--|
|---7--7-7-7--7-------|-------------|-------------|
|---------------------|-------------|-------------|
|---------------------|-------------|-------------|
|
|---------------------|-------------|-------------|
|-3-3--3-3-3--3-6--5--|-3-----------|-3-----------|
|-2-2--2-2-2--2-5--4--|-2-----5-----|-2-----------|
|-0-0--0-0-0--0-3--2--|-0-----5-----|-0-----------|
|---------------------|-------3-----|-------------|
|---------------------|-------------|-------------|


|-1-------------3-------------|-5----------------3--|-1------------|
|-3-3--3-3-3--3-5-3--3-3-3--3-|-6-------------5-----|----3--5------|
|---2--2-2-2--2---2--2-2-2--2-|---7--7-7-7--7-------|----------5---|
|-----------------------------|---7--7-7-7--7-------|--------------|
|-----------------------------|---------------------|--------------|
|-----------------------------|---------------------|--------------|
|
|-----------------------------|---------------------|--------------|
|-3-3--3-3-3--3-3-3--3-3-3--3-|-3-3--3-3-3--3-3-----|-------1------|
|-2-2--2-2-2--2-2-2--2-2-2--2-|-2-2--2-2-2--2-2--5--|-3-----0------|
|-0-0--0-0-0--0-0-0--0-0-0--0-|-0-0--0-0-0--0-0--5--|-3------------|
|-----------------------------|------------------3--|-1-----3------|
|-----------------------------|---------------------|--------------|


|-10-----------|-----------------------------------------|
|--------------|-----------------------------------------|
|--------------|-10------------------12------------------|
|-----------12-|-12-12--12-12-12--12-14-12--12-12-12--12-|
|-----------12-|----12--12-12-12--12----12--12-12-12--12-|
|--------------|-----------------------------------------|
|
|--------------|-----------------------------------------|
|--3-----------|--3--3---3--3--3---3--3--3---3--3--3---3-|
|--2-----------|--2--2---2--2--2---2--2--2---2--2--2---2-|
|--0-----------|--0--0---0--0--0---0--0--0---0--0--0---0-|
|--------------|-----------------------------------------|
|--------------|-----------------------------------------|


|-----------------------------|
|-10--------------------------|
|-10----------------------12--|
|----12--12-12-12--12-14------|
|----12--12-12-12--12---------|
|-----------------------------|
|
|-----------------------------|
|--3--3---3--3--3---3--6---5--|
|--2--2---2--2--2---2--5---4--|
|--0--0---0--0--0---0--3---2--|
|-----------------------------|
|-----------------------------|


|-----------------|--------------|-----------------------------------------|
|-----------------|--------------|-----------------------------------------|
|-10--------------|--------------|-----------------------------------------|
|-----12--14------|--------------|-15------------------17------------------|
|-------------15--|-17--------17-|-17-17--17-17-17--17-19-17--17-17-17--17-|
|-----------------|-----------17-|----17--17-17-17--17----17--17-17-17--17-|
|
|-----------------|--------------|-----------------------------------------|
|--3--------------|--3-----------|--3--3---3--3--3---3--3--3---3--3--3---3-|
|--2-------5------|--2-----------|--2--2---2--2--2---2--2--2---2--2--2---2-|
|--0-------5------|--0-----------|--0--0---0--0--0---0--0--0---0--0--0---0-|
|----------3------|--------------|-----------------------------------------|
|-----------------|--------------|-----------------------------------------|


|-----------------------------|-----------------|-------|
|-----------------------------|-------------18--|-------|
|-----------------------------|-----------------|-19----|
|-19----------------------17--|-15--------------|-------|
|-20-17--17-17-17--17-19------|-----17--19------|-------|
|----17--17-17-17--17---------|-----------------|-------|
|
|-----------------------------|-----------------|-------|
|--3--3---3--3--3---3--3------|----------1------|--3----|
|--2--2---2--2--2---2--2---5--|--3-------0------|--2----|
|--0--0---0--0--0---0--0---5--|--3--------------|--0----|
|--------------------------3--|--1-------3------|-------|
|-----------------------------|-----------------|-------|


|-----------------------------|---------------------|--------------|
|-----------------------------|---------------------|--------------|
|-----------------------------|---------------------|--------------|
|-0-0--0-0-0--0-0-0--0-0-0--0-|-0-------------3--2--|-3------------|
|-----------------------------|--------0------------|----5--7------|
|-----------------------------|---------------------|----------8---|
|
|-----------------------------|---------------------|--------------|
|-3-3--3-3-3--3-3-3--3-3-3--3-|-3-3--3-3-3--3-6--5--|-3------------|
|-2-2--2-2-2--2-2-2--2-2-2--2-|-2-2--2-2-2--2-5--4--|-2-----5------|
|-0-0--0-0-0--0-0-0--0-0-0--0-|-0-0--0-0-0--0-3--2--|-0-----5------|
|-----------------------------|---------------------|-------3------|
|-----------------------------|---------------------|--------------|


|-----------|-----------------------------------------|
|-----------|-----------------------------------------|
|-----------|-----------------------------------------|
|-----------|-----------------------------------------|
|-----------|-----------------------------------------|
|-10--------|-10-10--10-10-10--10-10-10--10-10-10--10-|
|
|-----------|-----------------------------------------|
|--3--------|--3--3---3--3--3---3--3--3---3--3--3---3-|
|--2--------|--2--2---2--2--2---2--2--2---2--2--2---2-|
|--0--------|--0--0---0--0--0---0--0--0---0--0--0---0-|
|-----------|-----------------------------------------|
|-----------|-----------------------------------------|


|--------------------------|
|--------------------------|
|--------------------------|
|-----------------12--14---|
|---------12---------------|
|-10-----------------------|
|
|--------------------------|
|--3-3--3--3-3--3--3-------|
|--2-2--2--2-2--2--2---5---|
|--0-0--0--0-0--0--0---5---|
|----------------------3---|
|--------------------------|


|----------------|----------|------------------------------|
|----------------|----------|------------------------------|
|-14--12--10--9--|-7--------|------------------------------|
|----------------|----------|------------------------------|
|----------------|----------|-5-5--5-5-5--5-5-5--5-5-5--5--|
|----------------|----------|------------------------------|
|
|----------------|----------|------------------------------|
|----------1-----|-3--------|-3-3--3-3-3--3-3-3--3-3-3--3--|
|--3-------0-----|-2--------|-2-2--2-2-2--2-2-2--2-2-2--2--|
|--3-------------|-0--------|-0-0--0-0-0--0-0-0--0-0-0--0--|
|--1-------3-----|----------|------------------------------|
|----------------|----------|------------------------------|


|---------------------|-------------|-------|
|---------------------|-------------|-------|
|---------------------|-------------|-------|
|---------------3--2--|-3-----------|-------|
|-5-------------------|----5--7-----|-------|
|--------5------------|----------8--|-10----|
|
|---------------------|-------------|-------|
|-3-3--3-3-3--3-6--5--|-3-----------|--3----|
|-2-2--2-2-2--2-5--4--|-2-----5-----|--2----|
|-0-0--0-0-0--0-3--2--|-0-----5-----|--0----|
|---------------------|-------3-----|-------|
|---------------------|-------------|-------|


|-----------------------------------------|-----------------------------|
|-----------------------------------------|-----------------------------|
|-----------------------------------------|-----------------------------|
|-----------------------------------------|-----------------------------|
|-----------------------------------------|-----------------------------|
|-10-10--10-10-10--10-10-10--10-10-10--10-|-----------------------------|
|
|-----------------------------------------|-----------------------------|
|--3--3---3--3--3---3--3--3---3--3--3---3-|-3-3--3-3-3--3-3-3--3-3-3--3-|
|--2--2---2--2--2---2--2--2---2--2--2---2-|-2-2--2-2-2--2-2-2--2-2-2--2-|
|--0--0---0--0--0---0--0--0---0--0--0---0-|-0-0--0-0-0--0-0-0--0-0-0--0-|
|-----------------------------------------|-----------------------------|
|-----------------------------------------|-----------------------------|


|-------------|--------------|----------|-----------------------|
|-------------|--------------|----------|-----------------------|
|-------------|--------------|----------|-----------------------|
|-------------|--------------|----------|-----------------------|
|-------------|--------------|-8--------|-8--(8)-7-(7)--5-(5)---|
|-------------|--------------|----------|-----------------------|
|
|-------------|--------------|----------|-----------------------|
|-------------|--------------|----------|-----------------------|
|-------------|--------------|----------|-----------------------|
|-0--0--0--0--|-0--0--(0)----|-0--------|-0--(0)-2-(2)--0-(0)---|
|-0--0--0--0--|-0--0--(0)----|----------|-----------------------|
|-0--0--0--0--|-0--0--(0)----|----------|-----------------------|


|----------|-------------|------------|-----------------------|
|----------|-------------|------------|-----------------------|
|----------|-------------|------------|-----------------------|
|----------|-------5--7--|------------|-----------------------|
|-4--------|----4--------|-8----8--8--|-8--(8)-7-(7)--5-(5)---|
|----------|-5-----------|------------|-----------------------|
|
|----------|-------------|------------|-----------------------|
|----------|-------------|------------|-----------------------|
|----------|-------------|------------|-----------------------|
|----------|-------------|------------|-3--(3)-5-(5)--3-(3)---|
|-4--------|-------------|-5----------|-----------------------|
|----------|-7-----------|------------|-----------------------|


|-------------|-------------|---------------|----------------|
|-------3--5--|-6--5--3--1--|---------------|----------------|
|----5--------|-------------|---------------|----------------|
|-7-----------|-------------|-3---3--2--0-2-|-(2)--2--0------|
|-------------|-------------|---------------|------------3-5-|
|-------------|-------------|---------------|----------------|
|
|-------------|-------------|---------------|----------------|
|-------------|-------------|---------------|----------------|
|-------------|-------------|-----3---------|----------------|
|-2-----------|-2--2--2--2--|---3-3---------|---------5------|
|-------------|-0--0--0--0--|-1---1-----3---|-(3)--5--5------|
|-------------|-------------|---------------|---------5--5-7-|


|-------------------|--------------------|----------------|
|-------------------|--------------------|----------------|
|-------------------|--------------------|--------5-----5-|
|-------------------|--------------------|-7----------7---|
|-------------------|--------------------|----------------|
|-------------------|--------------------|----------------|
|
|-------------------|--------------------|----------------|
|-------------------|--------------------|----------------|
|-------------------|--------------------|----------------|
|------7-7--7-7--7--|-7----7-7--7-7-7--7-|-----8----------|
|------7-7--7-7--7--|-7----7-7--7-7-7--7-|---8-8----------|
|-(7)--7-7--7-7--7--|-7----7-7--7-7-7--7-|-8---8-----10---|


|------------------|-----1-0---3---1-5-3-6-|-5---------------------------|
|-----------3------|-(3)-------------------|---6-8-----------------------|
|--(5)-------------|-----------------------|-------9-10------------------|
|------------------|-----------------------|--------------12---14--------|
|------------------|-----------------------|------------------------15---|
|------------------|-----------------------|-----------------------------|
|
|------------------|-----------------------|-----------------------------|
|------------------|-----------------------|-----------------------------|
|------------------|-----------------------|-----------------------------|
|-----------5------|-----------------------|-----------------------------|
|-----------5------|-----------------------|-----------------------------|
|-(10)--12--5--5-7-|-(7)---7-7---7-7---7---|-7--------7-7----7--7-7----7-|


|--------------------|--------------------|-------------------|
|--------------------|--------------------|-------------------|
|--------------------|--------------------|-------------------|
|--------------------|--------------------|-------------------|
|--------------------|--------------------|-------------------|
|-13---13--12--10-12-|-(12)--12--10--8-10-|-------------------|
|
|--------------------|--------------------|-------------------|
|--------------------|--------------------|-------------------|
|--------------------|--------------------|-------------------|
|-------8------------|------------5-------|-------------------|
|----8--8------------|------------5-------|------7-7--7-7--7--|
|--8----8------10----|-(10)--12---5--5--7-|-(7)--7-7--7-7--7--|


|--------------------|-10--8--6--8--|-10---12--13--15--|-17----15----|
|--------------------|--------------|------------------|-------------|
|--------------------|--------------|------------------|-------------|
|--------------------|--------------|------------------|-------------|
|--------------------|--------------|------------------|-------------|
|--------------------|--------------|------------------|-------------|
|
|--------------------|--------------|------------------|-------------|
|--------------------|--------------|------------------|-------------|
|--------------------|--7-----------|------------------|--------5----|
|--------------------|--7-----8-----|-(8)--------------|--3-----5----|
|-7----7-7--7-7-7--7-|--5-----8-----|-(8)--------------|--3-----3----|
|-7----7-7--7-7-7--7-|--------8-----|-(8)--------------|--3----------|


|-(15)--------|-13------------------15------------------|
|-------------|-----------------------------------------|
|-------------|-----------------------------------------|
|-------------|----12--12-12-12--12---------------------|
|-------------|------------------------17--17-17-17--17-|
|-------------|-----------------------------------------|
|
|-------------|-----------------------------------------|
|-------------|-----------------------------------------|
|--(5)--------|-----------------------------------------|
|--(5)--------|--0--------------------------------------|
|--(3)--------|--0--------------------------------------|
|-------------|--0--------------------------------------|


|-17---------------------------------------|
|----------------------18------------------|
|------------------------------------------|
|------------------------------------------|
|-----17--17-17-17--17----17--17-17-17--17-|
|------------------------------------------|
|
|------------------------------------------|
|------------------------------------------|
|------------------------------------------|
|-(0)--------------------------------------|
|-(0)--------------------------------------|
|-(0)--------------------------------------|


|----13--17---------------------15-----15-|
|-15--------18---------------17----17-----|
|--------------19--------17---------------|
|------------------19-17------------------|
|-----------------------------------------|
|-----------------------------------------|
|
|-----------------------------------------|
|-----------------------------------------|
|----------------------5------------------|
|--0-------------------5------------------|
|--0-------------------3------------------|
|--0--------------------------------------|


|-13-----------|-13------------------15------------------|
|--------------|-----------------------------------------|
|--------------|-----------------------------------------|
|-----------12-|----12--12-12-12--12---------------------|
|--------------|------------------------17--17-17-17--17-|
|--------------|-----------------------------------------|
|
|--------------|-----------------------------------------|
|--------------|-----------------------------------------|
|--------------|-----------------------------------------|
|--0-----------|--0--------------------------------------|
|--0-----------|--0--------------------------------------|
|--0-----------|--0--------------------------------------|


|-17---------------------------------------|
|----------------------18------------------|
|------------------------------------------|
|------------------------------------------|
|-----17--17-17-17--17----17--17-17-17--17-|
|------------------------------------------|
|
|------------------------------------------|
|------------------------------------------|
|------------------------------------------|
|-(0)--------------------------------------|
|-(0)--------------------------------------|
|-(0)--------------------------------------|


|--------13---------------------15-----15-|
|----15-----15---------------17----17-----|
|-15-----------15--------17---------------|
|------------------15-17------------------|
|-----------------------------------------|
|-----------------------------------------|
|
|-----------------------------------------|
|----------------------1------------------|
|--3-------------------0------------------|
|--3--------------------------------------|
|--1-------------------3------------------|
|-----------------------------------------|


|-13-----------|-13--------------------15--------------------|
|--------------|---------------------------------------------|
|--------------|---------------------------------------------|
|-----------12-|----12---12-12-12---12-----------------------|
|--------------|--------------------------17---17-17-17---17-|
|--------------|---------------------------------------------|
|
|--------------|---------------------------------------------|
|--------------|---------------------------------------------|
|--------------|---------------------------------------------|
|--0-----------|--0--0-0--0--0--0-0--0--0--0-0--0--0--0-0--0-|
|--0-----------|--0--0-0--0--0--0-0--0--0--0-0--0--0--0-0--0-|
|--0-----------|--0--0-0--0--0--0-0--0--0--0-0--0--0--0-0--0-|


|-17----------------------------|
|-----------------------18------|
|---------------------------19--|
|-------------------------------|
|----17---17-17-17---17---------|
|-------------------------------|
|
|-------------------------------|
|-------------------------------|
|-------------------------------|
|--0--0-0--0--0--0-0--0--3---3--|
|--0--0-0--0--0--0-0--0--3---3--|
|--0--0-0--0--0--0-0--0--3---2--|


|---------------------------------------------|
|-18-17---18-20-18---20-22-20---22-20-18---17-|
|---------------------------------------------|
|---------------------------------------------|
|---------------------------------------------|
|---------------------------------------------|
|
|---------------------------------------------|
|---------------------------------------------|
|------------------------3--3-3--3--3--3-3--3-|
|--0--0-0--0--0--0-0--0--3--3-3--3--3--3-3--3-|
|--0--0-0--0--0--0-0--0--1--1-1--1--1--1-1--1-|
|--0--0-0--0--0--0-0--0-----------------------|


|-----------------------------------|
|-18--------------------------------|
|-----------------------------------|
|-----------------------------------|
|-----------------------------------|
|--------------------------------17-|
|
|-----------------------------------|
|-----------------------------------|
|-----------------------------------|
|--0-0-0-0-0-0-0-0-0-0-0-0-0-0-0--0-|
|--0-0-0-0-0-0-0-0-0-0-0-0-0-0-0--0-|
|--0-0-0-0-0-0-0-0-0-0-0-0-0-0-0--0-|


|-----------------------15--------------------|
|-18------------------------------------------|
|---------------------------------------------|
|---------------------------------------------|
|----17---17-17-17---17----17---17-17-17---17-|
|---------------------------------------------|
|
|---------------------------------------------|
|---------------------------------------------|
|---------------------------------------------|
|--0--0-0--0--0--0-0--0--0--0-0--0--0--0-0--0-|
|--0--0-0--0--0--0-0--0--0--0-0--0--0--0-0--0-|
|--0--0-0--0--0--0-0--0--0--0-0--0--0--0-0--0-|


|-17--------------------------------------|
|-----------------------18-------17-------|
|-----------------------------------------|
|-----------------------------------------|
|----17---17-17-17---17-------------------|
|-----------------------------------------|
|
|-----------------------------------------|
|------------------------1-1-1-1--1-1-1-1-|
|------------------------0-0-0-0--0-0-0-0-|
|--0--0-0--0--0--0-0--0-------------------|
|--0--0-0--0--0--0-0--0--3-3-3-3--3-3-3-3-|
|--0--0-0--0--0--0-0--0-------------------|


|------------------------------------------20-|
|-15-17---18-20-22---24---------20-22-23------|
|-----------------------21-22-----------------|
|---------------------------------------------|
|---------------------------------------------|
|---------------------------------------------|
|
|---------------------------------------------|
|------------------------1--1-1--1--1--1-1--1-|
|------------------------0--0-0--0--0--0-0--0-|
|--0--0-0--0--0--0-0--0-----------------------|
|--0--0-0--0--0--0-0--0--3--3-3--3--3--3-3--3-|
|--0--0-0--0--0--0-0--0-----------------------|


|-20--------------------------------|
|-----------------------------------|
|--------------------------21-------|
|-----------------------------------|
|-----------------------------------|
|-----------------------------------|
|
|-----------------------------------|
|-----------------------------------|
|-----------------------------------|
|--0-0-0-0-0-0-0-0-0-0-0-0--0-0-0-0-|
|--0-0-0-0-0-0-0-0-0-0-0-0--0-0-0-0-|
|--0-0-0-0-0-0-0-0-0-0-0-0--0-0-0-0-|


|---------------------------------------------|
|-20--------------------22--------------------|
|----21---21-21-21---21----21---21-21-21---21-|
|---------------------------------------------|
|---------------------------------------------|
|---------------------------------------------|
|
|---------------------------------------------|
|---------------------------------------------|
|---------------------------------------------|
|--2--2-2--2--2--2-2--2--2--2-2--2--2--2-2--2-|
|--2--2-2--2--2--2-2--2--2--2-2--2--2--2-2--2-|
|--2--2-2--2--2--2-2--2--2--2-2--2--2--2-2--2-|


|-19--------------------15-------14-------|
|----17---17-17-17---17-------------------|
|-----------------------------------------|
|-----------------------------------------|
|-----------------------------------------|
|-----------------------------------------|
|
|-----------------------------------------|
|-----------------------------------------|
|-----------------------------------------|
|--2--2-2--2--2--2-2--2-------------------|
|--2--2-2--2--2--2-2--2--5-5-5-5--5-5-5-5-|
|--2--2-2--2--2--2-2--2--5-5-5-5--0-0-0-0-|


|-12-15---19-----------------------17------17-|
|------------20-----------------19----19------|
|---------------21---------19-----------------|
|--------------------21-19--------------------|
|---------------------------------------------|
|---------------------------------------------|
|
|---------------------------------------------|
|---------------------------------------------|
|---------------------------------------------|
|--2--2-2--2--2--2-2--2--0--0-0--0--0--0-0--0-|
|--2--2-2--2--2--2-2--2--0--0-0--0--0--0-0--0-|
|--2--2-2--2--2--2-2--2--0--0-0--0--0--0-0--0-|


|-15--------------------------------|
|--------------------------17-------|
|-----------------------------------|
|-----------------------------------|
|-----------------------------------|
|-----------------------------------|
|
|-----------------------------------|
|-----------------------------------|
|-----------------------------------|
|--2-2-2-2-2-2-2-2-2-2-2-2--2-2-2-2-|
|--2-2-2-2-2-2-2-2-2-2-2-2--2-2-2-2-|
|--2-2-2-2-2-2-2-2-2-2-2-2--2-2-2-2-|


|-15--------------------17--------------------|
|----17---17-17-17---17----17---17-17-17---17-|
|---------------------------------------------|
|---------------------------------------------|
|---------------------------------------------|
|---------------------------------------------|
|
|---------------------------------------------|
|---------------------------------------------|
|---------------------------------------------|
|--2--2-2--2--2--2-2--2--2--2-2--2--2--2-2--2-|
|--2--2-2--2--2--2-2--2--2--2-2--2--2--2-2--2-|
|--2--2-2--2--2--2-2--2--2--2-2--2--2--2-2--2-|


|-19--------------------15-----------------|
|----17---17-17-17---17----17-----19-------|
|------------------------------------------|
|------------------------------------------|
|------------------------------------------|
|------------------------------------------|
|
|------------------------------------------|
|------------------------------------------|
|------------------------------------------|
|------------------------------------------|
|--2--2-2--2--2--2-2--2--5--5-5-5--4-4-4-4-|
|--2--2-2--2--2--2-2--2--5--5-5-5--4-4-4-4-|

[ Tab from: http://www.guitartabs.cc/tabs/c/children_of_bodom/silent_night_bodom_night_tab_ver_4.html ]
|--------15---------------------17-----17-|-15--------------------------------|
|----17-----17---------------19----19-----|-----------------------------------|
|-17-----------17--------19---------------|-----------------------------------|
|------------------17-19------------------|-----------------------------------|
|-----------------------------------------|--------------------------------17-|
|-----------------------------------------|-----------------------------------|
|
|-----------------------------------------|-----------------------------------|
|-----------------------------------------|-----------------------------------|
|--5--------------------------------------|-----------------------------------|
|--5-------------------0------------------|--2-2-2-2-2-2-2-2-2-2-2-2-2-2-2--2-|
|--3-------------------0------------------|--2-2-2-2-2-2-2-2-2-2-2-2-2-2-2--2-|
|----------------------0------------------|--2-2-2-2-2-2-2-2-2-2-2-2-2-2-2--2-|


|-----------------------15--------------------|
|-18------------------------------------------|
|---------------------------------------------|
|---------------------------------------------|
|----17---17-17-17---17----17---17-17-17---17-|
|---------------------------------------------|
|
|---------------------------------------------|
|---------------------------------------------|
|---------------------------------------------|
|--0--0-0--0--0--0-0--0--0--0-0--0--0--0-0--0-|
|--0--0-0--0--0--0-0--0--0--0-0--0--0--0-0--0-|
|--0--0-0--0--0--0-0--0--0--0-0--0--0--0-0--0-|


|-17--------------------------------------|
|---------------------18------------------|
|-----------------------------------------|
|-----------------------------------------|
|----17--17-17-17--17----17--17-17-17--17-|
|-----------------------------------------|
|
|-----------------------------------------|
|-----------------------------------------|
|-----------------------------------------|
|--0-------------------3---------2--------|
|--0-------------------3---------2--------|
|--0-------------------3---------2--------|


|----13---17-----------------------15------15-|
|-15---------18-----------------17----17------|
|---------------19---------17-----------------|
|--------------------19-17--------------------|
|---------------------------------------------|
|---------------------------------------------|
|
|---------------------------------------------|
|---------------------------------------------|
|------------------------5--5-5--5--5--5-5--5-|
|--0--0-0--0--0--0-0--0--5--5-5--5--5--5-5--5-|
|--0--0-0--0--0--0-0--0--3--3-3--3--3--3-3--3-|
|--0--0-0--0--0--0-0--0-----------------------|


|-13--------------------------------|
|-----------------------------------|
|-----------------------------------|
|--------------------------------12-|
|-----------------------------------|
|-----------------------------------|
|
|-----------------------------------|
|-----------------------------------|
|-----------------------------------|
|--0-0-0-0-0-0-0-0-0-0-0-0-0-0-0--0-|
|--0-0-0-0-0-0-0-0-0-0-0-0-0-0-0--0-|
|--0-0-0-0-0-0-0-0-0-0-0-0-0-0-0--0-|


|-13--------------------15--------------------|
|---------------------------------------------|
|---------------------------------------------|
|----12---12-12-12---12-----------------------|
|--------------------------17---17-17-17---17-|
|---------------------------------------------|
|
|---------------------------------------------|
|---------------------------------------------|
|---------------------------------------------|
|--0--0-0--0--0--0-0--0--0--0-0--0--0--0-0--0-|
|--0--0-0--0--0--0-0--0--0--0-0--0--0--0-0--0-|
|--0--0-0--0--0--0-0--0--0--0-0--0--0--0-0--0-|


|-17------------------------------------------|
|-----------------------18--------------------|
|---------------------------------------------|
|---------------------------------------------|
|----17---17-17-17---17----17---17-17-17---17-|
|---------------------------------------------|
|
|---------------------------------------------|
|---------------------------------------------|
|---------------------------------------------|
|--0--0-0--0--0--0-0--0--0--0-0--0--0--0-0--0-|
|--0--0-0--0--0--0-0--0--0--0-0--0--0--0-0--0-|
|--0--0-0--0--0--0-0--0--0--0-0--0--0--0-0--0-|


|-18-17--15-13-12--10-17-15--13-12-10--8-|-10----|
|----------------------------------------|-------|
|----------------------------------------|-------|
|----------------------------------------|-------|
|----------------------------------------|-------|
|----------------------------------------|-------|
|
|----------------------------------------|-------|
|----------------------------------------|-------|
|----------------------------------------|--3----|
|--0-------------------------------------|--3----|
|--0-------------------------------------|--1----|
|--0-------------------------------------|-------|


|-----------------------------------------|
|-----------------------------------------|
|-----------------------------------------|
|-----------------------------------------|
|-----------------------------------------|
|-10-10--10-10-10--10-10-10--10-10-10--10-|
|
|-----------------------------------------|
|--3--3---3--3--3---3--3--3---3--3--3---3-|
|--2--2---2--2--2---2--2--2---2--2--2---2-|
|--0--0---0--0--0---0--0--0---0--0--0---0-|
|-----------------------------------------|
|-----------------------------------------|


|----------------------|----------------|
|----------------------|----------------|
|----------------------|----------------|
|----------------------|----------------|
|---------0------8--7--|-8--------------|
|-10-------------------|----10--12--8---|
|
|----------------------|----------------|
|--3-3--3-3-3--3-6--5--|-3--------------|
|--2-2--2-2-2--2-5--4--|-2-------5------|
|--0-0--0-0-0--0-3--2--|-0-------5------|
|----------------------|---------3------|
|----------------------|----------------|


|-----------|-----------------------------------------|
|-----------|-----------------------------------------|
|-----------|-----------------------------------------|
|-----------|-----------------------------------------|
|-----------|-----------------------------------------|
|-10--------|-10-10--10-10-10--10-10-10--10-10-10--10-|
|
|-----------|-----------------------------------------|
|--3--------|--3--3---3--3--3---3--3--3---3--3--3---3-|
|--2--------|--2--2---2--2--2---2--2--2---2--2--2---2-|
|--0--------|--0--0---0--0--0---0--0--0---0--0--0---0-|
|-----------|-----------------------------------------|
|-----------|-----------------------------------------|


|--------------------------|
|--------------------------|
|--------------------------|
|-----------------12--14---|
|---------12---------------|
|-10-----------------------|
|
|--------------------------|
|--3-3--3--3-3--3--3-------|
|--2-2--2--2-2--2--2---5---|
|--0-0--0--0-0--0--0---5---|
|----------------------3---|
|--------------------------|


|----------------|----------|------------------------------|
|----------------|----------|------------------------------|
|-14--12--10--9--|-7--------|------------------------------|
|----------------|----------|------------------------------|
|----------------|----------|-5-5--5-5-5--5-5-5--5-5-5--5--|
|----------------|----------|------------------------------|
|
|----------------|----------|------------------------------|
|----------1-----|-3--------|-3-3--3-3-3--3-3-3--3-3-3--3--|
|--3-------0-----|-2--------|-2-2--2-2-2--2-2-2--2-2-2--2--|
|--3-------------|-0--------|-0-0--0-0-0--0-0-0--0-0-0--0--|
|--1-------3-----|----------|------------------------------|
|----------------|----------|------------------------------|


|---------------------|-------------|-------|
|---------------------|-------------|-------|
|---------------------|-------------|-------|
|---------------3--2--|-3-----------|-------|
|-5-------------------|----5--7-----|-------|
|--------5------------|----------8--|-10----|
|
|---------------------|-------------|-------|
|-3-3--3-3-3--3-6--5--|-3-----------|--3----|
|-2-2--2-2-2--2-5--4--|-2-----5-----|--2----|
|-0-0--0-0-0--0-3--2--|-0-----5-----|--0----|
|---------------------|-------3-----|-------|
|---------------------|-------------|-------|


|-----------------------------------------|
|-----------------------------------------|
|-----------------------------------------|
|-----------------------------------------|
|-----------------------------------------|
|-10-10--10-10-10--10-10-10--10-10-10--10-|
|
|-----------------------------------------|
|--3--3---3--3--3---3--3--3---3--3--3---3-|
|--2--2---2--2--2---2--2--2---2--2--2---2-|
|--0--0---0--0--0---0--0--0---0--0--0---0-|
|-----------------------------------------|
|-----------------------------------------|


|-------------------------|-------------8---|
|-------------------------|-----------------|
|-------------------------|-14--12--10------|
|-----------------12--14--|-----------------|
|---------12--------------|-----------------|
|-10----------------------|-----------------|
|
|-------------------------|-----------------|
|--3-3--3--3-3--3--3------|----------1------|
|--2-2--2--2-2--2--2---5--|--3-------0------|
|--0-0--0--0-0--0--0---5--|--3--------------|
|----------------------3--|--1-------3------|
|-------------------------|-----------------|


|-10--------|----------|------------|------|
|-----------|----------|------------|------|
|-----------|----------|------------|------|
|-----------|----------|------------|------|
|-----------|----------|------------|------|
|-----------|----------|------------|------|
|
|-----------|----------|------------|------|
|--3--------|----------|------------|------|
|--2--------|----------|------------|------|
|--0--------|-0--------|-(0)--------|-0----|
|-----------|-0--------|-(0)--------|-0----|
|-----------|-0--------|-(0)--------|-0----|


  Gtr II
|------------|----------|------------|------|
|------------|----------|------------|------|
|------------|----------|------------|-3----|
|-(0)--------|-0--------|-(0)--------|-3----|
|-(0)--------|-0--------|-(0)--------|-1----|
|-(0)--------|-0--------|-(0)--------|------|


|------------|---------------|----------------|---------------|
|------------|---------------|----------------|---------------|
|-(3)--------|---------------|----------------|---------------|
|-(3)--------|---------------|----------------|---------------|
|-(1)--------|-0------0------|-0--------------|-0------0------|
|------------|-0--0-0-0--0-0-|-0--0-0-0-0-0-0-|-0--0-0-0--0-0-|


|---------------|---------------|---------------|------|
|---------------|---------------|---------------|------|
|---------------|---------------|---------------|-3----|
|---------------|---------------|---------------|-3----|
|-0----------1--|-0------0------|-----3------2--|-1----|
|-0--0-0-0-0-1--|-0--0-0-0--0-0-|-0-0-3--0-0-2--|------|


|------------|---------------|----------------|---------------|
|------------|---------------|----------------|---------------|
|-(3)--------|---------------|----------------|---------------|
|-(3)--------|---------------|----------------|---------------|
|-(1)--------|-0------0------|-0--------------|-0------0------|
|------------|-0--0-0-0--0-0-|-0--0-0-0-0-0-0-|-0--0-0-0--0-0-|


|---------------|----------|----------|------|
|---------------|----------|----------|------|
|---------------|----------|----------|------|
|---------------|-5--------|-7--------|-8----|
|-0----------1--|-5--------|-7--------|-8----|
|-0--0-0-0-0-1--|-5--------|-7--------|-8----|


  Gtr I
|-----------|-10-12-13----17----------|
|-----------|----------15----18-20----|
|-----------|----------------------21-|
|-----------|-------------------------|
|-----------|-------------------------|
|-----------|-------------------------|
|
| Gtr II
|-----------|-------------------------|
|-----------|-------------------------|
|-----------|-------------------------|
|-10--------|-------------------------|
|-10--------|-12----------------------|
|-10--------|-12----12-12-12-12-12-12-|


|-------------17-15-13-12-|-10-12-13----17----------|
|----17-18----------------|----------15----18-20----|
|-19-------19-------------|----------------------21-|
|-------------------------|-------------------------|
|-------------------------|-------------------------|
|-------------------------|-------------------------|
|
|-------------------------|-------------------------|
|-------------------------|-------------------------|
|-------------------------|-------------------------|
|-------------------------|-------------------------|
|-------------10----10----|-12----------------------|
|-12-12-12-12-10----10----|-12----12-12-12-12-12-12-|


|-------------------|-------------17----------|
|-------------------|----17-18-------18-20----|
|-22-21-19-18-19----|-19-------19----------21-|
|-------------------|-------------------------|
|-------------------|-------------------------|
|-------------------|-------------------------|
|
|-------------------|-------------------------|
|-------------------|-------------------------|
|-------------------|-------------------------|
|-------------------|-------------------------|
|--8----10----12----|-12----------------------|
|--8----10----12----|-12----12-12-12-12-12-12-|


|-------------17-15-13-12-|-10-12-13----17----------|
|----17-18----------------|----------15----18-20----|
|-19-------19-------------|----------------------21-|
|-------------------------|-------------------------|
|-------------------------|-------------------------|
|-------------------------|-------------------------|
|
|-------------------------|-------------------------|
|-------------------------|-------------------------|
|-------------------------|-------------------------|
|-------------------------|-------------------------|
|-------------10----10----|-12----------------------|
|-12-12-12-12-10----10----|-12----12-12-12-12-12-12-|


|-------------------------|---------------------------------6--8-|
|----18-17-18----18----15-|--------------------------------------|
|-------------19----17----|--------------------------------------|
|-20----------------------|-0------------------------------------|
|-------------------------|--------------------19-20--22-24------|
|-------------------------|---12--13-15-17--18-------------------|
|
|-------------------------|--------------------------------------|
|-------------------------|--------------------------------------|
|-------------------------|-7-------------------5----------------|
|--8----------------------|-7-------------------5----------------|
|--8----------------------|-5-------------------3----------------|
|--8----------------------|--------------------------------------|


|-10-12--13-15-17--18------------------20-|-22--------|-(22)--20------22---|
|---------------------17-18--20-22-23-----|-----------|-----------22-------|
|-----------------------------------------|-----------|--------------------|
|-----------------------------------------|-----------|--------------------|
|-----------------------------------------|-----------|--------------------|
|-----------------------------------------|-----------|--------------------|
|
|-----------------------------------------|-----------|--------------------|
|--3--------------------------------------|-----------|--------------------|
|--2-------------------5------------------|--3--------|--(3)---------------|
|--0-------------------5------------------|--3--------|--(3)---------------|
|----------------------3------------------|--1--------|--(1)---------------|
|-----------------------------------------|-----------|--------------------|


|-22--22-20----20-20-20-------|-------------------------------|
|-----------22----------22-20-|-22-22-22-20-18-20-20-20-18-17-|
|-----------------------------|-------------------------------|
|-----------------------------|-------------------------------|
|-----------------------------|-------------------------------|
|-----------------------------|-------------------------------|
|
|-----------------------------|-------------------------------|
|-----------------------------|-------------------------------|
|-----------------------------|-------------------------------|
|--0--------------------------|--0----------------------------|
|--0---0-----0--0--0--0-----0-|--0-----0-----0--0--0--0-----0-|
|--0---0-----0--0--0--0-----0-|--0-----0-----0--0--0--0-----0-|


|----------------------------|----------------------|
|-18-18-18-17-15-17-17-17-15-|-13-15-13-------15----|
|----------------------------|----------------------|
|----------------------------|----------------------|
|----------------------------|----------------------|
|----------------------------|----------------------|
|
|----------------------------|----------------------|
|----------------------------|--------1-1-1-1--1-1--|
|----------------------------|--------0-0-0-0--0-0--|
|--0-------------------------|----------------------|
|--0-----0-----0--0--0--0--0-|--0--0--3-3-3-3--3-3--|
|--0-----0-----0--0--0--0--0-|--0--0----------------|


|-17-15-13-------15-13----|-15-13-12--------------------------|
|----------15-17-------15-|----------13-15-17---18-20-22---23-|
|-------------------------|-----------------------------------|
|-------------------------|-----------------------------------|
|-------------------------|-----------------------------------|
|-------------------------|-----------------------------------|
|
|-------------------------|-----------------------------------|
|-------------------------|--1--1--1--1--1----1-----1----1----|
|--3--3--3--3--3--3--3--3-|--0--0--0--0--0----0-----0----0----|
|--3--3--3--3--3--3--3--3-|-----------------------------------|
|--1--1--1--1--1--1--1--1-|--3--3--3--3--3----3-----3----3----|
|-------------------------|-----------------------------------|


|-20-18-17-------18-17----|-17----|
|----------18-20-------18-|-------|
|-------------------------|-------|
|-------------------------|-------|
|-------------------------|-------|
|-------------------------|-------|
|
|-------------------------|-------|
|-------------------------|-------|
|-------------------------|--2----|
|--0--0--0--0--0--0--0--0-|--2----|
|--0--0--0--0--0--0--0--0-|--0----|
|--0--0--0--0--0--0--0--0-|-------|


|-----------------------15--------------------|
|-18------17-18-17---15----17---18-20-18---17-|
|----19---------------------------------------|
|---------------------------------------------|
|---------------------------------------------|
|---------------------------------------------|
|
|---------------------------------------------|
|---------------------------------------------|
|--3----3-----3----3-----3----3-----3----3----|
|--3----3-----3----3-----3----3-----3----3----|
|--1----1-----1----1-----1----1-----1----1----|
|---------------------------------------------|


|-17-15---13-12-10---8-10-12---13-15-17---18-|
|--------------------------------------------|
|--------------------------------------------|
|--------------------------------------------|
|--------------------------------------------|
|--------------------------------------------|
|
|--------------------------------------------|
|--1----1-----1----1----1----1-----1----1----|
|--0----0-----0----0----0----0-----0----0----|
|--------------------------------------------|
|--3----3-----3----3----3----3-----3----3----|
|--------------------------------------------|


|-20---------20-18---17-22------20-22-20---18-|
|----22---23---------------23-----------------|
|---------------------------------------------|
|---------------------------------------------|
|---------------------------------------------|
|---------------------------------------------|
|
|---------------------------------------------|
|---------------------------------------------|
|---------------------------------------------|
|--0----0-----0----0-----0----0-----0----0----|
|--0----0-----0----0-----0----0-----0----0----|
|--0----0-----0----0-----0----0-----0----0----|


|-22-------22-------|--------------------|
|-------------------|--------------------|
|-------------------|--------------------|
|-------------------|-24-----------24----|
|-------------------|--------------------|
|-------------------|--------------------|
|
|-------------------|--------------------|
|-------------------|--------------------|
|--2-2-2-2--2-2-2-2-|--3-3-3-3-3-3--3-3--|
|--2-2-2-2--2-2-2-2-|--3-3-3-3-3-3--3-3--|
|--0-0-0-0--0-0-0-0-|--1-1-1-1-1-1--1-1--|
|-------------------|--------------------|


|-------------------------|----------18-17-15-13-|
|-------------------17-15-|-14-------------------|
|--------21-(21)-19-------|----------------------|
|-24----------------------|----------------------|
|-------------------------|----------------------|
|-------------------------|----------------------|
|
|-------------------------|----------------------|
|-------------------------|----------------------|
|--3-3-3--3---3---3--3--3-|--2-2-2-2--2--2--2--2-|
|--3-3-3--3---3---3--3--3-|--2-2-2-2--2--2--2--2-|
|--1-1-1--1---1---1--1--1-|--0-0-0-0--0--0--0--0-|
|-------------------------|----------------------|


|-17-15-13-12-15-13-12-10-|--------------------|
|-------------------------|-11-----------11-13-|
|-------------------------|--------------------|
|-------------------------|--------------------|
|-------------------------|--------------------|
|-------------------------|--------------------|
|
|-------------------------|--------------------|
|-------------------------|--------------------|
|--2--2--2--2--2--2--2--2-|--3-3-3-3-3-3--3--3-|
|--2--2--2--2--2--2--2--2-|--3-3-3-3-3-3--3--3-|
|--0--0--0--0--0--0--0--0-|--1-1-1-1-1-1--1--1-|
|-------------------------|--------------------|


|------20------------|---------------------|
|-15-----------------|-----------15---17---|
|--------------------|------17-------------|
|---------------20---|-19------------------|
|--------------------|---------------------|
|--------------------|---------------------|
|
|--------------------|---------------------|
|--------------------|---------------------|
|--3-3--3-3-3-3--3-3-|--2-2--2-2--2-2--2-2-|
|--3-3--3-3-3-3--3-3-|--2-2--2-2--2-2--2-2-|
|--1-1--1-1-1-1--1-1-|--0-0--0-0--0-0--0-0-|
|--------------------|---------------------|


|---------------------|--------------------|
|-18---17---15---13---|--------------------|
|---------------------|--------------------|
|---------------------|--------------------|
|---------------------|--------------------|
|---------------------|-13---13--12--10-12-|
|
|---------------------|--------------------|
|---------------------|--------------------|
|--2-2--2-2--2-2--2-2-|-------3------------|
|--2-2--2-2--2-2--2-2-|----3--3------------|
|--0-0--0-0--0-0--0-0-|--1----1-------3----|
|---------------------|--------------------|


|--------------------|-------------------|--------------------|
|--------------------|-------------------|--------------------|
|--------------------|-------------------|--------------------|
|--------------------|-------------------|--------------------|
|--------------------|-------------------|--------------------|
|-(12)--12--10--8-10-|-------------------|--------------------|
|
|--------------------|-------------------|--------------------|
|--------------------|-------------------|--------------------|
|--------------------|-------------------|--------------------|
|------------5-------|------7-7--7-7--7--|-7----7-7--7-7-7--7-|
|--(3)---5---5-------|------7-7--7-7--7--|-7----7-7--7-7-7--7-|
|------------5--5--7-|-(7)--7-7--7-7--7--|-7----7-7--7-7-7--7-|


|-------------------|-------------------|-------------------5-3-6-|
|-------------------|-------------------|-------------8---6-------|
|-------------------|-------------------|------10-9---------------|
|---------10-----10-|-(10)------12------|-(12)--------------------|
|-12----------12----|-------------------|-------------------------|
|-------------------|-------------------|-------------------------|
|
|-------------------|-------------------|-------------------------|
|-------------------|-------------------|-------------------------|
|-------------------|-------------------|-------------------------|
|------8------------|------------5------|-------------------------|
|----8-8------------|------------5------|-------------------------|
|--8---8------10----|-(10)--12---5--5-7-|--(7)----7-7---7-7---7---|


|-5---------------------------|--------------------|--------------------|
|---6-8-----------------------|--------------------|--------------------|
|-------9-10------------------|--------------------|--------------------|
|--------------12---14--------|--------------------|--------------------|
|------------------------15---|--------------------|--------------------|
|-----------------------------|-13---13--12--10-12-|-(12)--12--10--8-10-|
|
|-----------------------------|--------------------|--------------------|
|-----------------------------|--------------------|--------------------|
|-----------------------------|--------------------|--------------------|
|-----------------------------|-------8------------|------------5-------|
|-----------------------------|----8--8------------|------------5-------|
|-7--------7-7----7--7-7----7-|--8----8------10----|-(10)--12---5--5--7-|


|-------------------|--------------------|-10--8--6--8--|
|-------------------|--------------------|--------------|
|-------------------|--------------------|--------------|
|-------------------|--------------------|--------------|
|-------------------|--------------------|--------------|
|-------------------|--------------------|--------------|
|
|-------------------|--------------------|--------------|
|-------------------|--------------------|--------------|
|-------------------|--------------------|--7-----------|
|-------------------|--------------------|--7-----8-----|
|------7-7--7-7--7--|-7----7-7--7-7-7--7-|--5-----8-----|
|-(7)--7-7--7-7--7--|-7----7-7--7-7-7--7-|--------8-----|


|-10---12--13--15--|-17----15----|-(15)----|
|------------------|-------------|---------|
|------------------|-------------|---------|
|------------------|-------------|---------|
|------------------|-------------|---------|
|------------------|-------------|---------|
|
|------------------|-------------|---------|
|------------------|-------------|---------|
|------------------|--------5----|--(5)----|
|-(8)--------------|--3-----5----|--(5)----|
|-(8)--------------|--3-----3----|--(3)----|
|-(8)--------------|--3----------|---------|


|---------------------------------6--8-|
|--------------------------------------|
|--------------------------------------|
|-0------------------------------------|
|--------------------19-20--22-24------|
|---12--13-15-17--18-------------------|
|
|--------------------------------------|
|-3------------------------------------|
|-2-------------------5----------------|
|-0-------------------5----------------|
|---------------------3----------------|
|--------------------------------------|


|-10-12--13-15-17--18------------------20-|
|---------------------17-18--20-22-23-----|
|-----------------------------------------|
|-----------------------------------------|
|-----------------------------------------|
|-----------------------------------------|
|
|-----------------------------------------|
|--3--------------------------------------|
|--2-------------------5------------------|
|--0-------------------5------------------|
|----------------------3------------------|
|-----------------------------------------|


|-22----22------------|-----------*|
|----------22-(22)----|-----------*|
|------------------22-|-----------*|
|---------------------|-24--------*|
|---------------------|-----------*|
|---------------------|-----------*|
|
|---------------------|-----------*|
|--3------------------|-----------*|
|--2------------------|-----------*|
|--0-----0--0--(0)--0-|--0--------*|
|--------0--0--(0)--0-|--0--------*|
|--------0--0--(0)--0-|--0--------*|
Comments