Children Of Bodom - Red Light In My Eyes Part 2 Chords & Tabs

 

Red Light In My Eyes Part 2 Chords & Tabs

Children Of Bodom Chords & Tabs

Version: 1 Type: Tab 0 ratings
1 star 2 stars 3 stars 4 stars 5 stars
comments

Red Light In My Eyes Part 2 Tab

   
RED LIGHT IN MY EYES pt.2  
by CHILDREN OF BODOM

transcribed by Schuyler Tsuda 
http://members.tripod.com/~Heccubus


Intro: Taken from Mozart's Symphony No. 25 I believe, Keys bass and Drums 
play crashes over the chords during this part...

  C#m         B#dim       C#m C#m         B#dim       C#m
(gtr1, right channel)
|----------12-15p14p12\11-12-----------12-15p14p12\11-12-|
|-------12--------------------------12-------------------|
|----12--------------------------12----------------------|
|-14--------------------------14-------------------------|
|--------------------------------------------------------|
|--------------------------------------------------------|

  G#(7)       G#          G#  G#          G#          G#  
|----------14-17p15p14\12-14-----------14-17p15p14\12-14-|
|-------16--------------------------16-------------------|
|----14--------------------------14----------------------|
|-16--------------------------16-------------------------|
|--------------------------------------------------------|
|--------------------------------------------------------|


(gtr1)
|----------15-19p17p15\14-15--15p14p12\11-12--12p10p8\7--8p7--|
|-------17----------------------------------------------------|
|----16-------------------------------------------------------|
|-17----------------------------------------------------------|
|-------------------------------------------------------------|
|-------------------------------------------------------------|
|                                                             |
|(gtr2, left channel)                                         |
|-------------------------------------------------------------|
|-------------20p19p17\16-17--17p15p13\12-13--13p12p10\9-10p9-|
|-------------------------------------------------------------|
|-------------------------------------------------------------|
|-------------------------------------------------------------|
|-------------------------------------------------------------|


|-------------------------------------|
|-10--10-8--8-7--7--------------------|
|-------------------9---9-8--8--------|
|-------------------------------------|
|-------------------------------------|
|-------------------------------------|
|                                     |
|-------------------------------------|
|-------------------------------------|
|-11--11-9--9-8--8--------------------|
|------------------10--10-9--9--------|
|-------------------------------------|
|-------------------------------------|

Vocals enter, guitars play quadruplets:
(C#m)
|-----------------------------------------------------------------|
|-----------------------------------------------------------------|
|-----------------------------------------------------------------|
|-----------------------------------------------------------------|
|-7-7-7-7-7-7-7-7-7-7-7-7-7-7-7-7-7-7-7-7-7-7-7-7-7-7-7-7-7-7-7-7-|
|-----------------------------------------------------------------|
|                                                                 |
|-----------------------------------------------------------------|
|-----------------------------------------------------------------|
|-9-9-9-9-9-9-9-9-9-9-9-9-9-9-9-9---------------------------------|
|---------------------------------9-9-9-9-9-9-9-9-9-9-9-9-9-9-9-9-|
|-----------------------------------------------------------------|
|-----------------------------------------------------------------|


(D#mb5)                                           (G#7)
|---------------------------------------------------------------------------------|
|---------------------------------------------------------------------------------|
|---------------------------------------------------------------------------------|
|---------------------------------------------------------------------------------|
|-9--9--9--9--9--9--9--9--9--9--9--9--9--9--9--9----------------------------------|
|-------------------------------------------------7-7-7-7-7-7-7-7-7-7-7-7-7-7-7-7-|
|                                                                                 |
|---------------------------------------------------------------------------------|
|---------------------------------------------------------------------------------|
|---------------------------------------------------------------------------------|
|-10-10-10-10-10-10-10-10-10-10-10-10-10-10-10-10-7-7-7-7-7-7-7-7-7-7-7-7-7-7-7-7-|
|---------------------------------------------------------------------------------|
|---------------------------------------------------------------------------------|


 (C#m)                            (E)                     (A##dim)
|---------------------------------------------------------------------------------|
|---------------------------------------------------------------------------------|
|---------------------------------------------------------------------------------|
|---------------------------------------------------------8--8--8--8--8--8--8--8--|
|-7-7-7-7-7-7-7-7-7-7-7-7-7-7-7-7-10-10-10-10-10-10-10-10-------------------------|
|---------------------------------------------------------------------------------|
|                                                                                 |
|---------------------------------------------------------------------------------|
|---------------------------------8--8--8--8--8--8--8--8--11-11-11-11-11-11-11-11-|
|-9-9-9-9-9-9-9-9-9-9-9-9-9-9-9-9-------------------------------------------------|
|---------------------------------------------------------------------------------|
|---------------------------------------------------------------------------------|
|---------------------------------------------------------------------------------|


(G#)
|-------------------------------------------------------------------------------------------------|
|-------------------------------------------------------------------------------------------------|
|-------------------------------------------------------------------------------------------------|
|-9--9--9--9--9--9--9--9--9--9--9--9--9--9--9--9--9--9--9--9--9--9--9--9--9--9--9--9--9--9--9--9--|
|-------------------------------------------------------------------------------------------------|
|-------------------------------------------------------------------------------------------------|
|                                                                                                 |
|-------------------------------------------------------------------------------------------------|
|-12-12-12-12-12-12-12-12-12-12-12-12-12-12-12-12-12-12-12-12-12-12-12-12-12-12-12-12-12-12-12-12-|
|-------------------------------------------------------------------------------------------------|
|-------------------------------------------------------------------------------------------------|
|-------------------------------------------------------------------------------------------------|
|-------------------------------------------------------------------------------------------------|


  (G#)                                   (C#m) 
|-------------------------------------------------------------------------------------|
|-------------------------------------------------------------------------------------|
|-------------------------------------------------------------------------------------|
|-9--9--9--9--9--9--9--9--9--9--9--9--9--9--9--9--9--9--9--9--9--9--9--9--9--9--9--9--|
|-------------------------------------------------------------------------------------|
|-------------------------------------------------------------------------------------|
|                                                                                     |
|-------------------------------------------------------------12-12-12-12-15-15-15-15-|
|-----------------------------10-10-10-10-8-8-8-8-12-12-12-12-------------------------|
|---------8-8-8-8-11-11-11-11---------------------------------------------------------|
|-9-9-9-9-----------------------------------------------------------------------------|
|-------------------------------------------------------------------------------------|
|-------------------------------------------------------------------------------------|


  (B#dim)                                         (C#m)
|----------------------------------------------------------------------------|
|----------------------------------------------------------------------------|
|----------------------------------------------------------------------------|
|-9--9--9--9--9--9--9--9--9--9--9--9--9--9--9--9--9--9--9--9--9--9--9--9--9--|
|----------------------------------------------------------------------------|
|----------------------------------------------------------------------------|
|                                                                            |
|-14-14-14-14-------------17-17-17-17-20-20-20-20-19-19-19-19-17-17-17-17----|
|-------------16-16-16-16-------------------------------------------------20-|
|----------------------------------------------------------------------------|
|----------------------------------------------------------------------------|
|----------------------------------------------------------------------------|
|----------------------------------------------------------------------------|

Interlude:
(with heavy palm mute and keys playing the melody)
|-------------------------------------------------------------------------------------------------|
|-------------------------------------------------------------------------------------------------|
|-------------------------------------------------------------------------------------------------|
|-------------------------------------------------------------------------------------------------|
|-------------------------------------------------------------------------------------------------|
|-0-2-3--3--3--3p0--0--0--0-2-3--3--3--3p0--0--0--2-3-5--5--5--5p2--2--2--2-3-5--5--5--5p2--2--2--|


|-------------------------------------------------------------------------------------------------|
|-------------------------------------------------------------------------------------------------|
|-------------------------------------------------------------------------------------------------|
|-------------------------------------------------------------------------------------------------|
|-------------------------------------------------------------------------------------------------|
|-3-4-5--5--5--5p3--3--3--3-4-5--5--5--5p3--3--3--5-7-8--8--8--8p5--5--5--5-7-8--8--8--8p5--5--5--|


|---------------------------------------------7-----------------------|
|-0h7--7--7--7p0--0--0--0h8--8--8--8p0--0--0-----0-------------7------|
|--------------------------------------------------------5--4--5------|
|--------------------------------------------------------3--2-----5-7-|
|---------------------------------------------------------------------|
|---------------------------------------------------------------------|


Both guitars:
Riff 1A(2x)
||------------------------------------------------------------||
||------------------------------------------------------------||
||.--------------------------------------------------------7-.||
||.---------------7--7-7-4-----------------------------7h9---.||
||--2--2-2-5------5--5-5-2------7-----5h7-----9h10------------||
||--0--0-0-3--------------------0-0-0-----0-0------0-0--------||

Riff 1B(2x)
||--------------------------------------------------------||
||--------------------------------------------------------||
||.------------------------------------------------------.||
||.---------------7--7-7-4---------------------------4-7-.||
||--2--2-2-5------5--5-5-2------2------2------2------2-5--||
||--0--0-0-3--------------------0--0-0-0--0-0-0--0-0------||

Riff 2
(gtr1 with heavy palm mute)
|-------------------------------------------------------------------------------------|
|-------------------5p3p0----------------3--------------------5p3p0-------------------|
|-----------------4-------2-2-2-2-2-2-4---------------------4-------2-2-2-2-2-2-------|
|---4-5-7-5-4---5-----------------------------4-5-7-5-4---5---------------------5--4--|
|-7-----------7-----------------------------7-----------7-----------------------------|
|-------------------------------------------------------------------------------------|
|                                                                                     |
|(gtr2 with heavy palm mute)                                                          |
|-------------------------------------------------------------------------------------|
|-------------------------------------------------------------------------------------|
|-------------------------------------------------------------------------------------|
|-------------------------------------------------------------------------------------|
|-------------------------------------------------------------------------------------|
|-0-0-0-0-0-0-0-0-0-0-0-0-5-5-5-5-5-5-3--2--0-0-0-0-0-0-0-0-0-0-0-0-5-5-5-5-5-5-2--5--|


[ Tab from: http://www.guitartabs.cc/tabs/c/children_of_bodom/red_light_in_my_eyes_part_2_tab.html ]
|-----------3-7p3-----------------------|
|----------5-----5-10--10-10-10-12--15--|
|---------4-----------------------------|
|---------------------------------------|
|---------------------------------------|
|---------------------------------------|
|                                       |
|-----------7-12p7----------------------|
|----------8------8---------------------|
|---------9-----------------------------|
|---------------------------------------|
|---------------------------------------|
|-0---0------------ 5-----------2-------|


Riff3
 (E#m)                    (G)         (F#mb5)
|-------------------------------------------------|
|-------------------------------------------------|
|-3h5h7-------------3h5h7-7h8h10------5h7h8-------|
|-------------------------------------------------|
|-------------------------------------------------|
|-------------------------------------------------|
|                                                 |
|-------------------------------------------------|
|-------------------------------------------------|
|-------------------------------------------------|
|-------------------------------------------------|
|-------------------------------------------------|
|-3-3-3-3-3-3-3-3-3-3-3-3-6-6-6-6-6-6-5-5-5-5-5-5-|


 (Em)                     (D)         (D7)
|-------------------------------------------------|
|-------------------------------------------------|
|-3h5h7-------------3h5h7-7h8h10------5h7h8-------|
|-------------------------------------------------|
|-------------------------------------------------|
|-------------------------------------------------|
|                                                 |
|-------------------------------------------------|
|-------------------------------------------------|
|-------------------------------------------------|
|-------------------------------------3-3-3-3-3-3-|
|-------------------------3-3-3-3-3-3-------------|
|-3-3-3-3-3-3-3-3-3-3-3-3-------------------------|


 (Em)                     (G)         (F#mb5)
|-------------------------------------------------|
|-------------------------------------------------|
|-3h5h7-------------3h5h7-7h8h10------5h7h8-------|
|-------------------------------------------------|
|-------------------------------------------------|
|-------------------------------------------------|
|                                                 |
|-------------------------------------------------|
|-------------------------------------------------|
|-------------------------------------------------|
|-------------------------------------------------|
|-------------------------------------------------|
|-3-3-3-3-3-3-3-3-3-3-3-3-6-6-6-6-6-6-5-5-5-5-5-5-|


 (Em)
|--------------------------------------------------|
|--------------------------------------------------|
|-3h5h7--------------------------------------------|
|-------------------------8-----------10---------9-|
|-------------------------6-----------8----------7-|
|--------------------------------------------------|
|                                                  |
|--------------------------------------------------|
|--------------------------------------------------|
|--------------------------------------------------|
|-------------------------8-----------10---------9-|
|-------------------------6-----------8----------7-|
|-3-3-3-3-3-3-3-3-3-3-3-3--------------------------|


Keyboard solo

 (A) (G#m) (f#m) (E)    (C#m)
|----------------------------|
|----------------------------|
|----------------------------|
|---------------------5----2-|
|-3----2----0----------------|
|----------------3-----------|
|                            |
|----------------------------|
|----------------------------|
|----------------------------|
|-2----0--------------5----2-|
|-----------0----2-----------|
|----------------------------|


|--------------------------------------------------------------------------|
|--------------------------------------------------------------------------|
|--------------------------------------------------------------------------|
|-------------7-----------------7------------------2----------4-----7----9-|
|-------------5-----------------5------------------0----------2-----5----7-|
|-0-0-0-0-0-0-------0-0-0-0-0-0--------0-0-0-0-0-0-------------------------|
|                                                                          |
|-7h8---7------------7h8---7------------7h8--7----------------7------------|
|----10--9-10-7h8h10----10--9-10-7h8h10----10-9-10-7h8h10-8h10-10p8p7------|
|--------------------------------------------------------------------9p7-9-|
|--------------------------------------------------------------------------|
|--------------------------------------------------------------------------|
|--------------------------------------------------------------------------|


|--------------------------------------------------------------------------|
|--------------------------------------------------------------------------|
|--------------------------------------------------------------------------|
|-------------7------------------7------9----7-----2----------4-----7----9-|
|-------------5------------------5------7----5-----0----------2-----5----7-|
|-0-0-0-0-0-0--------0-0-0-0-0-0-------------------------------------------|
|                                                                          |
|-7h8---7------------7h8---7------------7h8--7----------------7------------|
|----10--9-10-7h8h10----10--9-10-7h8h10----10-9-10-7h8h10-8h10-10p8p7------|
|--------------------------------------------------------------------9p7-9-|
|--------------------------------------------------------------------------|
|--------------------------------------------------------------------------|
|--------------------------------------------------------------------------|


|------------------------------------------------------------------------------|
|------------------------------------------------------------------------------|
|------------------------------------------------------------------------------|
|-5-5-5-5-7-9-7------5-5-5-5-7-9-7-----9------7--------------------------------|
|-----------------------------------------------------7--------9-------7-----5-|
|-----------------------------------------------------5--------7-------5-----3-|
|                                                                              |
|-7h8---7------------7h8---7-----------10h12--10-------------------------------|
|----10--9-10-7h8h10----10--9-10-7h8h10-----13--12-13-10h12h13p12p10-----------|
|-------------------------------------------------------------------12p11p9--9-|
|--------------------------------------------------------------------------12--|
|------------------------------------------------------------------------------|
|------------------------------------------------------------------------------|


|---------------------------------------------|
|---------------------------------------------|
|---------------------------------------------|
|-------------------------7-----------9--7--5-|
|-7-----------9-----------6-6-6-6-6-6-7--5--3-|
|-5-5-5-5-5-5-7-7-7-7-7-7---------------------|

Keys and vocals

Both Guitars:
|--------------------------------------------------------------|
|--------------------------------------------------------------|
|--------------------------------------------------------------|
|-7--7--7--7---------------------------------------------------|
|-5--5--5--5--9--9-10--10--9--9-7--7--9--9-10--10--9--9-17--14-|
|-------------8--8-8---8---8--8-8--8--0--0-0---0---0--0-0---0--|

|------------------------------------------------------|
|------------------------------------------------------|
|------------------------------------------------------|
|------------------------------------------------------|
|-9--9-10--10--9--9-7--7---9--9--12--12--12--12-15--14-|
|-8--8-8---8---8--8-8--8--10--10-10--10--11--11-11--11-|

|-------------------------------------------------------------------------------|
|-------------------------------------------------------------------------------|
|--------------------7br-----------------------------------9-8----------7---|
|------------5---4h5--------5--9--9-7--7--9--9-7--7--10--10-9--9-----10-9--10---|
|-2----------3-----------------5--5-5--5--5--5-5--6--6---6--6--6----------------|
|-0-----------------------------------------------------------------------------|

|-----------------------------------------------------------------|
|-----------------------------------------------------------------|
|-----------------------------------------------------------------|
|-5-5-5-5-5-5-5-5-5-5-5-5-5-5-5-5-4-4-4-4-4-4-4-4-4-4-4-4-4-------|
|-3-3-3-3-3-3-3-3-3-3-3-3-3-3-3-3-2-2-2-2-2-2-2-2-2-2-2-2-2--3--5-|
|-----------------------------------------------------------------|

|-------------------------------------------------------------------|
|-------------------------------------------------------------------|
|-------------------------------------------------------------------|
|-5-5-5-5-5-5-5-5-5-5-5-5-5-5-5-5-7-7-7-7-7-7-7-7-7-7-7-7-7-7-7-7-7-|
|-3-3-3-3-3-3-3-3-3-3-3-3-3-3-3-3-5-5-5-5-5-5-5-5-5-6-6-6-6-6-6-6-6-|
|-------------------------------------------------------------------|

Back to first interlude

Riff1 A and B

Riff2

Riff3


(gtr1)
|-0-0-0-0-0-0-0-0-0-0-0-0-5-5-5-5-5-5-3-3-3-3-3-3-|
|-------------------------------------------------|
|-------------------------------------------------|
|-------------------------------------------------|
|-------------------------------------------------|
|-------------------------------------------------|
|                                                 |
|(gtr3, right channel)                            |
|-------------------------------------------------|
|-------------------------------------------------|
|-2-2-2-2-2-2-2-2-2-2-2-2-5-5-5-5-5-5-4-4-4-4-4-4-|
|-------------------------------------------------|
|-------------------------------------------------|
|-------------------------------------------------|
|                                                 |
|(gtr2)                                           |
|-------------------------------------------------|
|-------------------------------------------------|
|-------------------------------------------------|
|-------------------------------------------------|
|-------------------------------------------------|
|-5-5-5-5-5-5-5-5-5-5-5-5-8-8-8-8-8-8-3-3-3-3-3-3-|


(gtr1)
|-5-5-5-5-5-5-3-3-3-3-3-3-5-5-5-5-5-5-3-3-3-3-3-3-|
|-------------------------------------------------|
|-------------------------------------------------|
|-------------------------------------------------|
|-------------------------------------------------|
|-------------------------------------------------|
|                                                 |
|(gtr3)                                           |
|-------------------------------------------------|
|-------------------------------------------------|
|-5-5-5-5-5-5-4-4-4-4-4-4-5-5-5-5-5-5-4-4-4-4-4-4-|
|-------------------------------------------------|
|-------------------------------------------------|
|-------------------------------------------------|
|                                                 |
|(gtr2)                                           |
|-------------------------------------------------|
|-------------------------------------------------|
|-------------------------------------------------|
|-------------------------------------5-5-5-5-5-5-|
|-------------------------5-5-5-5-5-5-------------|
|-5-5-5-5-5-5-5-5-5-5-5-5-------------------------|


(gtr1)
|-5-5-5-5-5-5-3-3-3-3-3-3-5-5-5-5-5-5-3-3-3-3-3-3-|
|-------------------------------------------------|
|-------------------------------------------------|
|-------------------------------------------------|
|-------------------------------------------------|
|-------------------------------------------------|
|                                                 |
|(gtr3)                                           |
|-------------------------------------------------|
|-------------------------------------------------|
|-5-5-5-5-5-5-4-4-4-4-4-4-5-5-5-5-5-5-4-4-4-4-4-4-|
|-------------------------------------------------|
|-------------------------------------------------|
|-------------------------------------------------|
|                                                 |
|(gtr2)                                           |
|-------------------------------------------------|
|-------------------------------------------------|
|-------------------------------------------------|
|-------------------------------------------------|
|-------------------------------------------------|
|-5-5-5-5-5-5-5-5-5-5-5-5-8-8-8-8-8-8-3-3-3-3-3-3-|

Both guitars:
|---------------------------|
|---------------------------|
|---------------------------|
|-2-----2-----2-----2-----2-|
|-0--2--0--2--0--2--0--2--0-|
|----0-----0-----0-----0----|

(Gtr1)
|-----------------------------------------------------------------------9-10-11-12-13-14-15-16-17-|
|-----------------------------------------------------------10-11-12-13---------------------------|
|-----------------------------------------------10-11-12-13---------------------------------------|
|-----------------------------------11-12-13-14---------------------------------------------------|
|-----------------------12-13-14-15---------------------------------------------------------------|
|9-10-11-12-13-14-15-16---------------------------------------------------------------------------|

|----------------|
|------10--------|
|-----9----------|
|---10-------2---|
|-12---------0---|
|----------------|
Comments