Children Of Bodom - Needled 247 Chords & Tabs

 

Needled 247 Chords & Tabs

Children Of Bodom Chords & Tabs

Version: 5 Type: Tab 0 ratings
1 star 2 stars 3 stars 4 stars 5 stars
comments

Needled 247 Tab

   
                                    Needled 24/7                        
                           As recorded by Children of Bodom
                       (From the 2003 Album HATE CREW DEATHROLL)


          F5                   E5                   G5X                  D5X
     x 8 10 x x x          x 7 9 x x x         x 10 12 x x x        10 12 x x x x

          D5                   B5                   C5                 E5open
      x 5 7 x x x          x 2 4 x x x          x 3 5 x x x          0 2 x x x x

          A5                   G5                  D/F#                A5open
      5 7 x x x x          3 5 x x x x          2 5 x x x x          x 0 2 2 x x

          D#5                  C#5                  F#5                  Ab5
      x 6 8 x x x          x 4 6 x x x          2 4 x x x x          4 6 x x x x

          Bb5                  Eb5
      x 1 3 x x x          x 6 8 x x x

Gtr I (D G C F A D) - 'Distortion Guitar'
Gtr II (D G C F A D) - 'Distortion Guitar'
Gtr III (D G C F A D) - 'Distortion Guitar'
Gtr IV (D G C F A D) - 'Distortion Guitar'

This tab is nearly 100% accurate. Sorry about the 4 different guitar tracks. This song could
most likely be played on only 2 guitars but I found it much easier to tab it out using 4. So Please
bear with it. I'm working on adding the keyboard solo to my next Needled 24/7 Tab :-)

 Intro
  Fast Q=192
  F5 E5                                      G5XD5X
 4/4
  Gtr I
       PM----------------------------------|
   E E E S S S S S S E S S   S S S S E S S E  Q   E
|--------------------------|------------------------|
|--------------------------|------------------------|
|--------------------------|------------------------|
|-10-9---------------------|-----------------12-----|
|--8-7---------------------|-----------------10--12-|
|------0-0-0-0-0-0-0-0-0-0-|-0-0-0-0-0-0-0-0-----10-|
|
| Gtr II
|  E E Q     H               H             E  Q   E
|--------------------------|------------------------|
|--------------------------|------------------------|
|--------------------------|------------------------|
|-10-9---------------------|-----------------12-----|
|--8-7---------------------|-----------------10--12-|
|--------------------------|---------------------10-|


  F5 E5                          E5 D5E5
       PM----------------------|
   E E E S S S S S S E S S   E E  E E  Q    E E
|--------------------------|-----------------------|
|--------------------------|-----------------------|
|--------------------------|-----------------------|
|-10-9---------------------|------9-7--9-----------|
|--8-7---------------------|------7-5--7-----------|
|------0-0-0-0-0-0-0-0-0-0-|-0-0------------8-7----|
|
|                            PM|         PM
|  q   Q     H               E E  E E  E E  E E
|--------------------------|-----------------------|
|--------------------------|-----------------------|
|--------------------------|-----------------------|
|-10-----------------------|---------------10-9----|
|--8-----------------------|-----10s9s10-----------|
|--------------------------|-0-0---------0---------|


  F5 E5                                      G5X D5X
       PM----------------------------------|
   E E E S S S S S S E S S   S S S S E S S E  Q   E
|--------------------------|------------------------|
|--------------------------|------------------------|
|--------------------------|------------------------|
|-10-9---------------------|-----------------12-----|
|--8-7---------------------|-----------------10--12-|
|------0-0-0-0-0-0-0-0-0-0-|-0-0-0-0-0-0-0-0-----10-|
|
|      PM----------------------------------|
|  E E E S S S S S S E S S   S S S S E S S E  Q   E
|--------------------------|------------------------|
|--------------------------|------------------------|
|--------------------------|------------------------|
|-10-9---------------------|-----------------12-----|
|--8-7---------------------|-----------------10--12-|
|------0-0-0-0-0-0-0-0-0-0-|-0-0-0-0-0-0-0-0-----10-|


  F5 E5                      B5   C5D5E5
       PM----------------|
                                  |-3-|
   E E E S S S S S S E S S   H    Q Q Q
|--------------------------|--------------|
|--------------------------|--------------|
|--------------------------|--------------|
|-10-9---------------------|-4----5-7-9---|
|--8-7---------------------|-2----3-5-7---|
|------0-0-0-0-0-0-0-0-0-0-|--------------|
|
|      PM----------------|
|                                 |-3-|
|  E E E S S S S S S E S S   H    Q Q Q
|--------------------------|--------------|
|--------------------------|--------------|
|--------------------------|--------------|
|-10-9---------------------|-4----5-7-9---|
|--8-7---------------------|-2----3-5-7---|
|------0-0-0-0-0-0-0-0-0-0-|--------------|


  F5     E5                                           G5X D5X
  Gtr III
   W                               +W
|-------------------------------|----------------------------|
|-------------------------------|----------------------------|
|-<2>b2.5-----------------------|-(<2>)----------------------|
|-------------------------------|----------------------------|
|-------------------------------|----------------------------|
|-------------------------------|----------------------------|
|
| Gtr I
|           PM--------------------------------------|
|  E      E E S S S S S S E S S     S   S S S E S S E  Q   E
|-------------------------------|----------------------------|
|-------------------------------|----------------------------|
|-------------------------------|----------------------------|
|-10------9---------------------|---------------------12-----|
|--8------7---------------------|---------------------10--12-|
|-----------0-0-0-0-0-0-0-0-0-0-|---0---0-0-0-0-0-0-0-----10-|
|
| Gtr II
|           PM--------------------------------------|
|  E      E E S S S S S S E S S     S   S S S E S S E  Q   E
|-------------------------------|----------------------------|
|-------------------------------|----------------------------|
|-------------------------------|----------------------------|
|-10------9---------------------|---------------------12-----|
|--8------7---------------------|---------------------10--12-|
|-----------0-0-0-0-0-0-0-0-0-0-|---0---0-0-0-0-0-0-0-----10-|


  F5    E5                              E5 D5E5
   +W                            +H           +H
|-----------------------------|-----------------------------|
|-----------------------------|-----------------------------|
|-(<2>)-----------------------|-(<2>)--------(<2>)\---------|
|-----------------------------|-----------------------------|
|-----------------------------|-----------------------------|
|-----------------------------|-----------------------------|
|
|         PM--------------------------|
|   E   E E S S S S S S E S S     E   E  E E   Q       E E
|-----------------------------|-----------------------------|
|-----------------------------|-----------------------------|
|-----------------------------|-----------------------------|
|--10---9---------------------|----------9-7---9------------|
|---8---7---------------------|----------7-5---7------------|
|---------0-0-0-0-0-0-0-0-0-0-|---0---0----------------8-7--|
|
|         PM--------------------------|             PM
|   E   E E S S S S S S E S S     E   E  E E   E    E  E E
|-----------------------------|-----------------------------|
|-----------------------------|-----------------------------|
|-----------------------------|-----------------------------|
|--10---9---------------------|-----------------------10-9--|
|---8---7---------------------|---------10s9s=10------------|
|---------0-0-0-0-0-0-0-0-0-0-|---0---0-------------0-------|


  F5    E5
   S  S  S  S  S  S  S  S  S  S  S  S  S  S  S  S
|-------------------------------------------------|
|-15p12----12-15p12-15p12----12-15p12-15p12----12-|
|-------15----------------15----------------15----|
|-------------------------------------------------|
|-------------------------------------------------|
|-------------------------------------------------|
|
|              PM----------------------------------
|  E     E     E     S  S  S  S  S  S  E     S  S
|-------------------------------------------------|
|-------------------------------------------------|
|-------------------------------------------------|
|-10-----9----------------------------------------|
|--8-----7----------------------------------------|
|--------------0-----0--0--0--0--0--0--0-----0--0-|
|
|              PM----------------------------------
|  E     E     E     S  S  S  S  S  S  E     S  S
|-------------------------------------------------|
|-------------------------------------------------|
|-------------------------------------------------|
|-10-----9----------------------------------------|
|--8-----7----------------------------------------|
|--------------0-----0--0--0--0--0--0--0-----0--0-|


                                G5X         D5X
   S  S  S  S  S  S  S  S  S  S  S  S  S  S  S  S
|-------------------------------------------------|
|-15p12----12-15p12-15p12----12-15p12-15p12----12-|
|-------15----------------15----------------15----|
|-------------------------------------------------|
|-------------------------------------------------|
|-------------------------------------------------|
|
|-------------------------|
|  S  S  S  S  E     S  S  E     Q           E
|-------------------------------------------------|
|-------------------------------------------------|
|-------------------------------------------------|
|-------------------------------12----------------|
|-------------------------------10----------12----|
|--0--0--0--0--0-----0--0--0----------------10----|
|
|-------------------------|
|  S  S  S  S  E     S  S  E     Q           E
|-------------------------------------------------|
|-------------------------------------------------|
|-------------------------------------------------|
|-------------------------------12----------------|
|-------------------------------10----------12----|
|--0--0--0--0--0-----0--0--0----------------10----|


  F5    E5
   S  S  S  S  S  S  S  S  S  S  S  S  S  S  S  S
|-15-14-12----14-12-------12----------------------|
|----------15-------15-14----15-14-12-15-14-12-12-|
|-------------------------------------------------|
|-------------------------------------------------|
|-------------------------------------------------|
|-------------------------------------------------|
|
|              PM----------------------------------
|  E     E     E     S  S  S  S  S  S  E     S  S
|-------------------------------------------------|
|-------------------------------------------------|
|-------------------------------------------------|
|-10-----9----------------------------------------|
|--8-----7----------------------------------------|
|--------------0-----0--0--0--0--0--0--0-----0--0-|
|
|              PM----------------------------------
|  E     E     E     S  S  S  S  S  S  E     S  S
|-------------------------------------------------|
|-------------------------------------------------|
|-------------------------------------------------|
|-10-----9----------------------------------------|
|--8-----7----------------------------------------|
|--------------0-----0--0--0--0--0--0--0-----0--0-|


        E5 D5          E5
   E  E  E  S      +S   +E   E  E  E
|------------------------------------||
|-------12---------------------------||
|-12-14----14b16==(14)r(14)-12-11----||
|---------------------------------12-||
|------------------------------------||
|------------------------------------||
|
|----|
|  E  E  E  E            Q      E  E
|------------------------------------||
|------------------------------------||
|------------------------------------||
|--------9--7------------9-----------||
|--------7--5------------7-----------||
|--0--0-------------------------8--7-||
|
|----|                       PM
|  E  E  E  E            E   E  E  E
|------------------------------------||
|------------------------------------||
|------------------------------------||
|------------------------------10--9-||
|-------10s=9s==========10-----------||
|--0--0----------------------0-------||


 Interlude
  E5      B5        C5      D5        E5      A5        G5      D/F#
  Gtr III
                                                              ~~~~~~
  E E E E E E E E   E E E E E E E E   E E E E E E E E   E E E E +E  E E E
|-----5-----------|-----------------|---7-8-5-5-5-7-3-|-3-3-5-2-(2)---2---|
|-5-8---7-7-7-8-5-|-5-5-7-3-3-5-7-3S|=5---------------|-------------3---3-|
|-----------------|-----------------|-----------------|-------------------|
|-----------------|-----------------|-----------------|-------------------|
|-----------------|-----------------|-----------------|-------------------|
|-----------------|-----------------|-----------------|-------------------|
|
| Gtrs I, II
| E E E E E E E E   E E E E E E E E   E E E E E E E E   E E E E  E  E E E
|-----------------|-----------------|-----------------|-------------------|
|-----------------|-----------------|-----------------|-------------------|
|-----------------|-----------------|-----------------|-------------------|
|-9-9-9-9-4-4-4-4-|-5-5-5-5-7-7-7-7-|-9-9-9-9---------|-------------------|
|-7-7-7-7-2-2-2-2-|-3-3-3-3-5-5-5-5-|-7-7-7-7-7-7-7-7-|-5-5-5-5--5--5-5-5-|
|-7-7-7-7---------|-----------------|---------5-5-5-5-|-3-3-3-3--2--2-2-2-|


  E5      B5        C5      D5        E5      A5        G5      D/F#
                                                                   ~~~
  E E E E E E E E   E E E E E E E E   E E E E E E E E   E E E E E  Q.
|-----5-----------|-----------------|---7-8-5-5-5-7-3-|-3-3-5-2-2-[3]-----||
|-5-8---7-7-7-8-5-|-5-5-7-3-3-5-7-3S|=5---------------|-------------------||
|-----------------|-----------------|-----------------|-------------------||
|-----------------|-----------------|-----------------|-------------------||
|-----------------|-----------------|-----------------|-------------------||
|-----------------|-----------------|-----------------|-------------------||
|
| E E E E E E E E   E E E E E E E E   E E E E E E E E   E E E E E  E  E E
|-----------------|-----------------|-----------------|-------------------||
|-----------------|-----------------|-----------------|-------------------||
|-----------------|-----------------|-----------------|-------------------||
|-9-9-9-9-4-4-4-4-|-5-5-5-5-7-7-7-7-|-9-9-9-9---------|-------------------||
|-7-7-7-7-2-2-2-2-|-3-3-3-3-5-5-5-5-|-7-7-7-7-7-7-7-7-|-5-5-5-5-5--5--5-5-||
|-7-7-7-7---------|-----------------|---------5-5-5-5-|-3-3-3-3-2--2--2-2-||


   First Verse
    F5 E5
    Gtr I
         PM------------------------------|
     E E E S S S S S S E S S   S S S S E E  E  E E E
||---------------------------|-----------------------|
||o--------------------------|-----------------------|
||---------------------------|-----------------------|
||--10-9---------------------|-----------------9---7-|
||o--8-7---------------------|-------------10----9---|
||-------0-0-0-0-0-0-0-0-0-0-|-0-0-0-0-0-0-----------|
|
|   Gtr II
|        PM------------------------------|
|    E E E S S S S S S E S S   S S S S E E  E  E E E
||---------------------------|-----------------------|
||o--------------------------|-----------------------|
||---------------------------|-----------------------|
||--10-9---------------------|--------------9----7---|
||o--8-7---------------------|----------------10---9-|
||-------0-0-0-0-0-0-0-0-0-0-|-0-0-0-0-0-0-----------|


  F5 E5                          E5 D5E5
       PM----------------------|            PM-----|
   E E E S S S S S S E S S   E E  E E  Q    S  S S S
|--------------------------|---------------------------|
|--------------------------|---------------------------|
|--------------------------|---------------------------|
|-10-9---------------------|------9-7--9---------------|
|--8-7---------------------|------7-5--7---------------|
|------0-0-0-0-0-0-0-0-0-0-|-0-0------------8--8-7-7---|
|
|      PM----------------------|         PM--------|
|  E E E S S S S S S E S S   E E  E E  E E  S  S S S
|--------------------------|---------------------------|
|--------------------------|---------------------------|
|--------------------------|---------------------------|
|-10-9---------------------|---------------10-10-9-9---|
|--8-7---------------------|-----10s9s10---------------|
|------0-0-0-0-0-0-0-0-0-0-|-0-0---------0-------------|


  A5opeC5     A5opeC5     F5 E5
                               PM-------------------
  H    H      H    H       E E E S S S S S S E S S
|-----------|-----------|--------------------------|
|-----------|-----------|--------------------------|
|-2----5----|-2----5----|--------------------------|
|-2----5----|-2----5----|-10-9---------------------|
|-0----3----|-0----3----|--8-7---------------------|
|-----------|-----------|------0-0-0-0-0-0-0-0-0-0-|
|
|                              PM-------------------
| H    H      H    H       E E E S S S S S S E S S
|-----------|-----------|--------------------------|
|-----------|-----------|--------------------------|
|-2----5----|-2----5----|--------------------------|
|-2----5----|-2----5----|-10-9---------------------|
|-0----3----|-0----3----|--8-7---------------------|
|-----------|-----------|------0-0-0-0-0-0-0-0-0-0-|


 1.                         2.
          E5 D5E5            N.C.
 -----|                                PM|
  E   E    E E  Q    E E     E E E E E E E E
|-------------------------||-----------------||
|------------------------o||-----------------||
|-------------------------||-9---9s8---------||
|----------9-7--9---------||---7-----6-----6-||
|----------7-5--7--------o||-----------8-9---||
|-0---0--------------8-7--||-----------------||
|
|-------|         PM                   PM|
| S S S S  E E  E E  E E     E E E E E E E E
|-------------------------||-----------------||
|------------------------o||-----------------||
|-------------------------||-----------------||
|-------------------10s9--||-9---9s8---------||
|---------10s9s10--------o||---7-----6-----7-||
|-0-0-0-0---------0-------||-----------7-8---||


   First Pre-Chorus
                                       1.           2.
    N.C.
    Gtrs I, II
    PM|
    E E Q  H      W          W          W            W
||--------------|----------|----------|-----------||------||
||o-------------|----------|----------|----------o||------||
||--------------|----------|----------|-----------||------||
||--------------|----------|----------|-----------||------||
||o-------------|----------|----------|----------o||------||
||--0-0---------|----------|----------|-----------||------||


 Interlude
  E5      B5        C5      D5        E5      A5        G5      D/F#
  Gtr III
                                                              ~~~~~~  ~
  E E E E E E E E   E E E E E E E E   E E E E E E E E   E E E E +E  E E E
|-----5-----------|-----------------|---7-8-5-5-5-7-3-|-3-3-5-2-(2)---2---|
|-5-8---7-7-7-8-5-|-5-5-7-3-3-5-7-3S|=5---------------|-------------3---3-|
|-----------------|-----------------|-----------------|-------------------|
|-----------------|-----------------|-----------------|-------------------|
|-----------------|-----------------|-----------------|-------------------|
|-----------------|-----------------|-----------------|-------------------|
|
| Gtrs I, II
| E E E E E E E E   E E E E E E E E   E E E E E E E E   E E E E  E  E E E
|-----------------|-----------------|-----------------|-------------------|
|-----------------|-----------------|-----------------|-------------------|
|-----------------|-----------------|-----------------|-------------------|
|-9-9-9-9-4-4-4-4-|-5-5-5-5-7-7-7-7-|-9-9-9-9---------|-------------------|
|-7-7-7-7-2-2-2-2-|-3-3-3-3-5-5-5-5-|-7-7-7-7-7-7-7-7-|-5-5-5-5--5--5-5-5-|
|-7-7-7-7---------|-----------------|---------5-5-5-5-|-3-3-3-3--2--2-2-2-|


  E5      B5        C5      D5        E5      A5        G5      D/F#
                                                                   \2
  E E E E E E E E   E E E E E E E E   E E E E E E E E   E E E E E  Q.
|-----5-----------|-----------------|---7-8-5-5-5-7-3-|-3-3-5-2-2-[3]-----||
|-5-8---7-7-7-8-5-|-5-5-7-3-3-5-7-3S|=5---------------|-------------------||
|-----------------|-----------------|-----------------|-------------------||
|-----------------|-----------------|-----------------|-------------------||
|-----------------|-----------------|-----------------|-------------------||
|-----------------|-----------------|-----------------|-------------------||
|
| E E E E E E E E   E E E E E E E E   E E E E E E E E   E E E E E  E  E E
|-----------------|-----------------|-----------------|-------------------||
|-----------------|-----------------|-----------------|-------------------||
|-----------------|-----------------|-----------------|-------------------||
|-9-9-9-9-4-4-4-4-|-5-5-5-5-7-7-7-7-|-9-9-9-9---------|-------------------||
|-7-7-7-7-2-2-2-2-|-3-3-3-3-5-5-5-5-|-7-7-7-7-7-7-7-7-|-5-5-5-5-5--5--5-5-||
|-7-7-7-7---------|-----------------|---------5-5-5-5-|-3-3-3-3-2--2--2-2-||


 Second Pre-Chorus
  N.C.                                       D#D5C#5
  Gtrs I, II
  PM|                                      PM
  E E Q  H      W          W          H    E E E E
|-------------|----------|----------|--------------|
|-------------|----------|----------|--------------|
|-------------|----------|----------|--------------|
|-------------|----------|----------|--------8-7-6-|
|-------------|----------|----------|--------6-5-4-|
|-0-0---------|----------|----------|------0-------|


  N.C.                                B5
  PM|
  E E Q  H      W          W          E E E E E E E E
|-------------|----------|----------|-----------------||
|-------------|----------|----------|-----------------||
|-------------|----------|----------|-----------------||
|-------------|----------|----------|-4-4-4-4-4-4-4-4-||
|-------------|----------|----------|-2-2-2-2-2-2-2-2-||
|-0-0---------|----------|----------|-----------------||


 Chorus
  $
  E5open   F#5        G5      D5
  Gtr II
   H        H         H       H
|-------------------|-----------------|
|-12-------10-------|-8-------7-------|
|--x--------x-------|-x-------x-------|
|--9--------7-------|-5-------4-------|
|-------------------|-----------------|
|-------------------|-----------------|
|
| Gtr I
|  E E E E  E E E E   E E E E E E E E
|-------------------|-----------------|
|-------------------|-----------------|
|-------------------|-----------------|
|-------------------|---------7-7-7-7-|
|--2-2-2-2--4-4-4-4-|-5-5-5-5-5-5-5-5-|
|--0-0-0-0--2-2-2-2-|-3-3-3-3---------|


  N.C.
    PM--------------------|     PM--------------------|
  E S S E S S E S S S S S S   E S S E S S E S S S S S S
|---------------------------|-----------------------------|
|---------------------------|-----------------------------|
|---------------------------|-----------------------------|
|-5-5-5-5-5-5-5-5-5-5-7-5-4-|-5-5-5-5-5-5-5-5-5-5-5-5-5---|
|---------------------------|-----------------------------|
|---------------------------|-----------------------------|
|
|   PM--------------------|     PM--------------------|
| E S S E S S E S S S S S S   E S S E S S E S S S S S S
|---------------------------|-----------------------------|
|---------------------------|-----------------------------|
|---------------------------|-----------------------------|
|---------------------------|-----------------------------|
|-3-3-3-3-3-3-3-3-3-3-5-3-2-|-3-3-3-3-3-3-3-3-3-3-5-3-2---|
|---------------------------|-----------------------------|


  C5       D5         E5      D5
   H        H         H        H
|-------------------|------------------|
|-12-------10-------|-8-------10-------|
|--x--------x-------|-x--------x-------|
|--9--------7-------|-5--------7-------|
|-------------------|------------------|
|-------------------|------------------|
|
|  E E E E  E E E E   E E E E  E E E E
|-------------------|------------------|
|-------------------|------------------|
|-------------------|------------------|
|--5-5-5-5--7-7-7-7-|-9-9-9-9--7-7-7-7-|
|--3-3-3-3--5-5-5-5-|-7-7-7-7--5-5-5-5-|
|-------------------|------------------|


  N.C.
    PM---------------------|     PM--------------------|
  E S S E S S E S S S  S S S   E S S E S S E S S S S S S
|----------------------------|-----------------------------|
|----------------------------|-----------------------------|
|----------------------------|-----------------------------|
|-9-9-9-9-9-9-9-9-9-9-10-9-7-|-9-9-9-9-9-9-9-9-9-9-9-9-9---|
|----------------------------|-----------------------------|
|----------------------------|-----------------------------|
|
|   PM---------------------|     PM--------------------|
| E S S E S S E S S S  S S S   E S S E S S E S S S S S S
|----------------------------|-----------------------------|
|----------------------------|-----------------------------|
|----------------------------|-----------------------------|
|----------------------------|-----------------------------|
|-7-7-7-7-7-7-7-7-7-7--8-7-5-|-7-7-7-7-7-7-7-7-7-7-8-7-5---|
|----------------------------|-----------------------------|


  E5open   F#5        G5      D5
   H        H         H       H
|-------------------|-----------------|
|-12-------10-------|-8-------7-------|
|--x--------x-------|-x-------x-------|
|--9--------7-------|-5-------4-------|
|-------------------|-----------------|
|-------------------|-----------------|
|
|  E E E E  E E E E   E E E E E E E E
|-------------------|-----------------|
|-------------------|-----------------|
|-------------------|-----------------|
|-------------------|---------7-7-7-7-|
|--2-2-2-2--4-4-4-4-|-5-5-5-5-5-5-5-5-|
|--0-0-0-0--2-2-2-2-|-3-3-3-3---------|


  N.C.
    PM--------------------|     PM--------------------|
  E S S E S S E S S S S S S   E S S E E   S S S S S S E
|---------------------------|------------------------------|
|---------------------------|------------------------------|
|---------------------------|------------------------------|
|-5-5-5-5-5-5-5-5-5-5-7-5-4-|-5-5-5-5-0---5-4-----4--------|
|---------------------------|-----------------7-5---7-5----|
|---------------------------|------------------------------|
|
|   PM--------------------|     PM--------------------|
| E S S E S S E S S S S S S   E S S E S S S S S S S S S S
|---------------------------|------------------------------|
|---------------------------|------------------------------|
|---------------------------|------------------------------|
|---------------------------|------------------------------|
|-3-3-3-3-3-3-3-3-3-3-5-3-2-|-3-3-3-3-3-5-3-2-----2--------|
|---------------------------|-----------------5-3---5-3-2--|


  C5       D5         E5      D5
   H        H         H        H
|-------------------|------------------|
|-12-------10-------|-8-------10-------|
|--x--------x-------|-x--------x-------|
|--9--------7-------|-5--------7-------|
|-------------------|------------------|
|-------------------|------------------|
|
|  E E E E  E E E E   E E E E  E E E E
|-------------------|------------------|
|-------------------|------------------|
|-------------------|------------------|
|--5-5-5-5--7-7-7-7-|-9-9-9-9--7-7-7-7-|
|--3-3-3-3--5-5-5-5-|-7-7-7-7--5-5-5-5-|
|-------------------|------------------|


                                 To Coda
                                        &
  N.C.
    PM---------------------|    ~~~
  E S S E S S E S S S  S S S    H     H
|----------------------------|--------------||
|----------------------------|--------------||
|----------------------------|--------------||
|-9-9-9-9-9-9-9-9-9-9-10-9-7-|-[9]----------||
|----------------------------|--------------||
|----------------------------|--------------||
|
|   PM---------------------|    ~~~
| E S S E S S E S S S  S S S    H     H
|----------------------------|--------------||
|----------------------------|--------------||
|----------------------------|--------------||
|----------------------------|--------------||
|-7-7-7-7-7-7-7-7-7-7--8-7-5-|-[7]----------||
|----------------------------|--------------||


 First Keyboard Solo
  N.C.                                                      E5
  Gtrs I, II
  PM------------------------------------------------------|
  S S S S S S S S S S S S S S S S   S S S S S S S S S S S S Q
|---------------------------------|----------------------------|
|---------------------------------|----------------------------|
|---------------------------------|----------------------------|
|---------------------------------|-------------------------9--|
|---------------------------------|-------------------------7--|
|-0-0-0-0-0-0-0-0-0-0-0-0-0-0-0-0-|-0-0-0-0-0-0-0-0-0-0-0-0----|


  N.C.                                                      F5
  PM------------------------------------------------------|
  S S S S S S S S S S S S S S S S   S S S S S S S S S S S S  Q
|---------------------------------|-----------------------------|
|---------------------------------|-----------------------------|
|---------------------------------|-----------------------------|
|---------------------------------|-------------------------10--|
|---------------------------------|--------------------------8--|
|-0-0-0-0-0-0-0-0-0-0-0-0-0-0-0-0-|-0-0-0-0-0-0-0-0-0-0-0-0-----|


  N.C.                                                      E5
  PM------------------------------------------------------|
  S S S S S S S S S S S S S S S S   S S S S S S S S S S S S Q
|---------------------------------|----------------------------|
|---------------------------------|----------------------------|
|---------------------------------|----------------------------|
|---------------------------------|-------------------------9--|
|---------------------------------|-------------------------7--|
|-0-0-0-0-0-0-0-0-0-0-0-0-0-0-0-0-|-0-0-0-0-0-0-0-0-0-0-0-0----|


  N.C.                              C5 G5 D5 A5
  PM----------------------------|
  S S S S S S S S S S S S S S S S   Q  Q  Q  Q
|---------------------------------|-------------||
|---------------------------------|-------------||
|---------------------------------|-------------||
|---------------------------------|-5-----7-----||
|---------------------------------|-3--5--5--7--||
|-0-0-0-0-0-0-0-0-0-0-0-0-0-0-0-0-|----3--5--5--||


   Second Verse
    F5 E5
    Gtr I
         PM------------------------------|
     E E E S S S S S S E S S   S S S S E E  E  E E E
||---------------------------|-----------------------|
||o--------------------------|-----------------------|
||---------------------------|-----------------------|
||--10-9---------------------|-----------------9---7-|
||o--8-7---------------------|-------------10----9---|
||-------0-0-0-0-0-0-0-0-0-0-|-0-0-0-0-0-0-----------|
|
|   Gtr II
|        PM------------------------------|
|    E E E S S S S S S E S S   S S S S E E  E  E E E
||---------------------------|-----------------------|
||o--------------------------|-----------------------|
||---------------------------|-----------------------|
||--10-9---------------------|--------------9----7---|
||o--8-7---------------------|----------------10---9-|
||-------0-0-0-0-0-0-0-0-0-0-|-0-0-0-0-0-0-----------|

[ Tab from: http://www.guitartabs.cc/tabs/c/children_of_bodom/needled_247_tab_ver_5.html ]
  F5 E5                          E5 D5E5
       PM----------------------|            PM-----|
   E E E S S S S S S E S S   E E  E E  Q    S  S S S
|--------------------------|---------------------------|
|--------------------------|---------------------------|
|--------------------------|---------------------------|
|-10-9---------------------|------9-7--9---------------|
|--8-7---------------------|------7-5--7---------------|
|------0-0-0-0-0-0-0-0-0-0-|-0-0------------8--8-7-7---|
|
|      PM----------------------|         PM--------|
|  E E E S S S S S S E S S   E E  E E  E E  S  S S S
|--------------------------|---------------------------|
|--------------------------|---------------------------|
|--------------------------|---------------------------|
|-10-9---------------------|---------------10-10-9-9---|
|--8-7---------------------|-----10s9s10---------------|
|------0-0-0-0-0-0-0-0-0-0-|-0-0---------0-------------|


  E5opeC5     E5opeC5     F5 E5
                               PM-------------------
  H    H      H    H       E E E S S S S S S E S S
|-----------|-----------|--------------------------|
|-----------|-----------|--------------------------|
|-2----5----|-2----5----|--------------------------|
|-2----5----|-2----5----|-10-9---------------------|
|-0----3----|-0----3----|--8-7---------------------|
|-----------|-----------|------0-0-0-0-0-0-0-0-0-0-|
|
|                              PM-------------------
| H    H      H    H       E E E S S S S S S E S S
|-----------|-----------|--------------------------|
|-----------|-----------|--------------------------|
|-2----5----|-2----5----|--------------------------|
|-2----5----|-2----5----|-10-9---------------------|
|-0----3----|-0----3----|--8-7---------------------|
|-----------|-----------|------0-0-0-0-0-0-0-0-0-0-|


 1.                         2.
                                    D.S. al Coda
          E5 D5E5            B5
 -----|
  E   E    E E  Q    E E     E E E  E   E  E  E E
|-------------------------||----------------------|
|------------------------o||----------------------|
|-------------------------||----------------------|
|----------9-7--9---------||-4-4-4--4---4--4--4-4-|
|----------7-5--7--------o||-2-2-2--2---2--2--2-2-|
|-0---0--------------8-7--||----------------------|
|
|-------|         PM
| S S S S  E E  E E  E E     E Q    E  +Q     Q
|-------------------------||----------------------|
|------------------------o||-------12-(12)---12---|
|-------------------------||--------x--(x)----x---|
|-------------------10s9--||-4------9--(9)----9---|
|---------10s9s10--------o||-2--------------------|
|-0-0-0-0---------0-------||----------------------|


 Interlude Part 1
  &
  C5        G#5      G5          Bb5       C5        G#5      C5
  Gtr III
    PM--|   PM         PM--|   PM      PM    PM--|   PM         PM--|
                                                                       |-3-|
  E E E E E E  E E   E E E E E E   E   E   E E E E E E  E E   E E E E  Q Q Q
|----------------6-|---------------------|----------------6-|----------------|
|--------------6---|-8-------8-----6-----|--------------6---|-8--------------|
|-8-5-5-5-8-5------|---5-5-5---5-------5-|-8-5-5-5-8-5------|---5-5-3-/6-5---|
|------------------|---------------------|------------------|--------------8-|
|------------------|---------------------|------------------|----------------|
|------------------|---------------------|------------------|----------------|
|
| Gtr I
|                            |---3---|                                 |-3-|
| Q   Q   E Q.       Q   Q   Q   Q   Q     Q   Q   E Q.       Q   Q    Q Q Q
|------------------|---------------------|------------------|----------------|
|------------------|---------------------|------------------|----------------|
|------------------|---------------------|------------------|----------------|
|-5----------------|-------------3---3---|-5----------------|-5-------/3-2---|
|-3---------6------|-5-----------1---1---|-3---------6------|-3------------4-|
|-----------4------|-3-------------------|-----------4------|----------------|
|
| Gtr II
|                            |---3---|                                 |-3-|
| Q   Q   E Q.       Q   Q   Q   Q   Q     Q   Q   E Q.       Q   Q    Q Q Q
|------------------|---------------------|------------------|----------------|
|------------------|---------------------|------------------|----------------|
|------------------|---------------------|------------------|----------------|
|-5----------------|-------------3---3---|-5----------------|-5-------/6-5-3-|
|-3---------6------|-5-----------1---1---|-3---------6------|-3--------------|
|-----------4------|-3-------------------|-----------4------|----------------|


  C5                            Bb5     C5                   Bb5
    PM--|   PM          PM--|   PM  PM     PM--|   PM        PM  PM ~~~
  E E E E E E E E    E  E E E E E E E   E  E E E E E E E   E E E E  H
|---------------6-|-------------------|----------------6-|----------------|
|-------------6---|--8--------8---6---|--------------6---|-4---3----------|
|-8-5-5-5-8-5-----|-----5-5-5---5---5-|-8--5-5-5-8-5-----|---3---3-[3]----|
|-----------------|-------------------|------------------|----------------|
|-----------------|-------------------|------------------|----------------|
|-----------------|-------------------|------------------|----------------|
|
|                             PM  PM|                      PM  PM|  ~~~
| W                 +Q    Q   E E E E   H.           Q     E E E E  H
|-----------------|-------------------|------------------|----------------|
|-----------------|-------------------|------------------|----------------|
|-----------------|-------------------|------------------|---------[3]----|
|-5---------------|-(5)---5-----3-3-3-|-5------------5---|---3-x-x--------|
|-3---------------|-(3)---3---x-1-1-1-|-3------------3---|-x-1-x-x--------|
|-----------------|-------------------|------------------|----------------|
|
|                             PM  PM|                      PM  PM|  ~~~
| W                 +Q    Q   E E E E   H.           Q     E E E E  H
|-----------------|-------------------|------------------|----------------|
|-----------------|-------------------|------------------|----------------|
|-----------------|-------------------|------------------|---------[3]----|
|-5---------------|-(5)---5-----3-3-3-|-5------------5---|---3-x-x--------|
|-3---------------|-(3)---3---x-1-1-1-|-3------------3---|-x-1-x-x--------|
|-----------------|-------------------|------------------|----------------|


  C5
    PM--|   PM          PM--|      PM|
  E E E E E E E E    E  E E E   E  E E   E
|---------------6-|-------------------------|
|-------------6---|--8----------8------[13]s|
|-8-5-5-5-8-5-----|-----5-5-5------5-5------|
|-----------------|-------------------------|
|-----------------|-------------------------|
|-----------------|-------------------------|
|
| W                 +H          H
|-----------------|-------------------------|
|-----------------|-------------------------|
|-----------------|-------------------------|
|-5---------------|-(5)---------------------|
|-3---------------|-(3)-------/18\----------|
|-----------------|-------------------------|
|
| W                 +Q    Q     H
|-----------------|-------------------------|
|-----------------|-------------------------|
|-----------------|-------------------------|
|-5---------------|-(5)---------------------|
|-3---------------|-(3)---------------------|
|-----------------|-------4s===18\----------|


  Bb5
    PM|    PM-|      PM--|           PM|
  E E E E  E    E  E E   E E E   E   E E  Q
|----------------------|----------------------||
|-4-----3-----[13]s4---|---3---[13]s=4----3---||
|---3-3----3---------3-|-3---5---------3------||
|----------------------|----------------------||
|----------------------|----------------------||
|----------------------|----------------------||
|
|     PM        PM       PM      PM
| Q   E E +E    E  Q     E Q     E   Q    Q
|----------------------|----------------------||
|----------------------|----------------------||
|----------------------|----------------------||
|-3---3-3-(3)---3--3---|-3-3-----3---3----3---||
|-1---1-1-(1)---1--1---|-1-1-----1---1----1---||
|----------------------|----------------------||
|
|     PM        PM       PM      PM
| Q   E E +E    E  Q     E Q     E   Q    Q
|----------------------|----------------------||
|----------------------|----------------------||
|-3-----5-(5)------7---|---8--------10---12\--||
|-x-----x-(x)------x---|---x---------x----x---||
|-1---x-3-(3)---x--5---|-x-6-----x---8---10\--||
|----------------------|----------------------||


 Interlude Part 2
  Bb5      C5         D5                Bb5      C5         D5
  Gtr III
   E E E E  E E E E   E E E E E E E E    E E E E  E E E E   E E E E E E E E
|-----------------8-|-----------------|-----------------8-|-----------------|
|---------------8---|-6-------6---5---|---------------8---|-6-------6---5---|
|-10-7-7-7-10-7-----|---5-5-5---5---5-|-10-7-7-7-10-7-----|---5-5-5---5---5-|
|-------------------|-----------------|-------------------|-----------------|
|-------------------|-----------------|-------------------|-----------------|
|-------------------|-----------------|-------------------|-----------------|
|
| Gtrs I, II
|  E E E E  E E E E   E E E E E E E E    E E E E  E E E E   E E E E E E E E
|-------------------|-----------------|-------------------|-----------------|
|-------------------|-----------------|-------------------|-----------------|
|-------------------|-----------------|-------------------|-----------------|
|--3-3-3-3--5-5-5-5-|-7-7-7-7-7-7-7-7-|--3-3-3-3--5-5-5-5-|-7-7-7-7-7-7-7-7-|
|--1-1-1-1--3-3-3-3-|-5-5-5-5-5-5-5-5-|--1-1-1-1--3-3-3-3-|-5-5-5-5-5-5-5-5-|
|-------------------|-----------------|-------------------|-----------------|


  Bb5      C5         D5
  Gtr IV
   W                  W
|-------------------|-----------------|
|-------------------|-----------------|
|-------------------|-----------------|
|-------------------|-----------------|
|-------------------|-----------------|
|-------------------|-----------------|
|
| Gtr III
|  E E E E  E E E E   E E E E E E E E
|-----------------8-|-----------------|
|---------------8---|-6-------6---5---|
|-10-7-7-7-10-7-----|---5-5-5---5---5-|
|-------------------|-----------------|
|-------------------|-----------------|
|-------------------|-----------------|
|
| Gtrs I, II
|  E E E E  E E E E   E E E E E E E E
|-------------------|-----------------|
|-------------------|-----------------|
|-------------------|-----------------|
|--3-3-3-3--5-5-5-5-|-7-7-7-7-7-7-7-7-|
|--1-1-1-1--3-3-3-3-|-5-5-5-5-5-5-5-5-|
|-------------------|-----------------|


  Bb5      C5         D5
   W                  H       Q   E  E
|-------------------|----------------------||
|-------------------|---------------18b20r=||
|-------------------|----------------------||
|-------------------|----------------------||
|-------------------|----------------------||
|-------------------|----------------------||
|
|  E E E E  E E E E   E E E E E E E  E
|-----------------8-|----------------------||
|---------------8---|-6-------6---5--------||
|-10-7-7-7-10-7-----|---5-5-5---5----5-----||
|-------------------|----------------------||
|-------------------|----------------------||
|-------------------|----------------------||
|
|  E E E E  E E E E   E E E E E E E  E
|-------------------|----------------------||
|-------------------|----------------------||
|-------------------|----------------------||
|--3-3-3-3--5-5-5-5-|-7-7-7-7-7-7-7--7-----||
|--1-1-1-1--3-3-3-3-|-5-5-5-5-5-5-5--5-----||
|-------------------|----------------------||


 Guitar Solo
  Bb5          C5       D5
  Gtr IV
                                                     \1/
                         ~~~~~~~~~
   +Q     E  E  E  E  E  E    +E   E  E  E  E  E  E  E
|--------15-17-15----------|------------15-17-15---------|
|-(18)------------18-17-15-|-(15)-15-18----------18p17p==|
|--------------------------|-----------------------------|
|--------------------------|-----------------------------|
|--------------------------|-----------------------------|
|--------------------------|-----------------------------|
|
| Gtrs I, II
|   E  E  E  E  E  E  E  E     E   E  E  E  E  E  E  E
|--------------------------|-----------------------------|
|--------------------------|-----------------------------|
|--------------------------|-----------------------------|
|---3--3--3--3--5--5--5--7-|---7---7--7--7--7--7--7--7---|
|---1--1--1--1--3--3--3--5-|---5---5--5--5--5--5--5--5---|
|--------------------------|-----------------------------|


  Ab5        Eb5               D5                              C5
                    |--3--|
   Q    E  E  S  S  S  S  S  E  E    Q.         E      +Q         Q
|------20----20h23p20h23p20----20-|-22tr23-----17tr18-(17tr18)---10tr11----|
|-16------16----------------21----|----------------------------------------|
|---------------------------------|----------------------------------------|
|---------------------------------|----------------------------------------|
|---------------------------------|----------------------------------------|
|---------------------------------|----------------------------------------|
|
|  E E  E  E  E     E        E  E    E     E E  E       E      E  E     E
|---------------------------------|----------------------------------------|
|---------------------------------|----------------------------------------|
|---------------------------------|----------------------------------------|
|-------------8-----8--------8--7-|--7-----7-7--7-------7------5--5-----5--|
|--6-6--6--6--6-----6--------6--5-|--5-----5-5--5-------5------3--3-----3--|
|--4-4--4--4----------------------|----------------------------------------|


  Bb5                     C5                D5
   S  S  S  S  S  S  S  S  S  S  S  S  S  S  S  S    S  S  S  S  S  S  S  S  S  S  S  S  S  S  S  S
|-13-12-10----10-12-13-10-12-13-17-13-15-17-18-15-|-17-18-20-19-18-17-------------------------------|
|----------13-------------------------------------|-------------------21-20-21-20-19-18-19-18-------|
|-------------------------------------------------|-------------------------------------------21-20-|
|-------------------------------------------------|-------------------------------------------------|
|-------------------------------------------------|-------------------------------------------------|
|-------------------------------------------------|-------------------------------------------------|
|
|  E     E     E     E     E     E     E     E       E     E     E     E     E     E     E     E
|-------------------------------------------------|-------------------------------------------------|
|-------------------------------------------------|-------------------------------------------------|
|-------------------------------------------------|-------------------------------------------------|
|--3-----3-----3-----3-----5-----5-----5-----7----|--7-----7-----7-----7-----7-----7-----7-----7----|
|--1-----1-----1-----1-----3-----3-----3-----5----|--5-----5-----5-----5-----5-----5-----5-----5----|
|-------------------------------------------------|-------------------------------------------------|


  Ab5         Eb5        D5                      C5
   \3      \3         \3
                              TP
   Q.      E   +Q     Q       H           Q         +Q
|--------------------18----|-20b22-------20pb22====(20)r\------||
|---------16--(16)---------|-----------------------------------||
|-17-----------------------|-----------------------------------||
|--------------------------|-----------------------------------||
|--------------------------|-----------------------------------||
|--------------------------|-----------------------------------||
|
|  E  E E  E    E  E  E  E    E    E E E  E      E   E    E
|--------------------------|-----------------------------------||
|--------------------------|-----------------------------------||
|--------------------------|-----------------------------------||
|---------------8--8--8--7-|--7----7-7-7--7------5---5----5----||
|--6--6-6--6----6--6--6--5-|--5----5-5-5--5------3---3----3----||
|--4--4-4--4---------------|-----------------------------------||


 Second Keyboard Solo
  Bb5     C5    D5                      Ab5     Eb5   D5              C5
  Gtrs I, II
  E E E E E E E E   +E  E E E E E E E   E E E E E E E E   +E  E E E E E E E
|-----------------|-------------------|-----------------|-------------------|
|-----------------|-------------------|-----------------|-------------------|
|-----------------|-------------------|-----------------|-------------------|
|-3-3-3-3-5-5-5-7-|-(7)-7-7-7-7-7-7---|---------8-8-8-7-|-(7)-7-7-7-7-5-5-5-|
|-1-1-1-1-3-3-3-5-|-(5)-5-5-5-5-5-5---|-6-6-6-6-6-6-6-5-|-(5)-5-5-5-5-3-3-3-|
|-----------------|-----------------0-|-4-4-4-4---------|-------------------|


  Bb5     C5    D5                      Ab5     Eb5   D5
                                                                      TP
  E E E E E E E E   +E  E E E E E E E   E E E E E E E E   +E  E E E E Q.
|-----------------|-------------------|-----------------|------------------||
|-----------------|-------------------|-----------------|------------------||
|-----------------|-------------------|-----------------|------------------||
|-3-3-3-3-5-5-5-7-|-(7)-7-7-7-7-7-7---|---------8-8-8-7-|-(7)-7-7-7-7-x\---||
|-1-1-1-1-3-3-3-5-|-(5)-5-5-5-5-5-5---|-6-6-6-6-6-6-6-5-|-(5)-5-5-5-5-x\---||
|-----------------|-----------------0-|-4-4-4-4---------|------------------||


   Interlude
    Gtr III
    E E E E E E E E   E E E E E E E E   E E E E E E E E
||------5-----------|-----------------|---7-8-5-5-5-7-3-|
||o-5-8---7-7-7-8-5-|-5-5-7-3-3-5-7-3S|=5---------------|
||------------------|-----------------|-----------------|
||------------------|-----------------|-----------------|
||o-----------------|-----------------|-----------------|
||------------------|-----------------|-----------------|
|
|   Gtrs I, II
|   E E E E E E E E   E E E E E E E E   E E E E E E E E
||------------------|-----------------|-----------------|
||o-----------------|-----------------|-----------------|
||------------------|-----------------|-----------------|
||--9-9-9-9-4-4-4-4-|-5-5-5-5-7-7-7-7-|-9-9-9-9---------|
||o-7-7-7-7-2-2-2-2-|-3-3-3-3-5-5-5-5-|-7-7-7-7-7-7-7-7-|
||--7-7-7-7---------|-----------------|---------5-5-5-5-|


 1.                    2.
                                   \2
        ~~~~~~  ~                  ~~~
  E E E E +E  E E E     E E E E E  Q.
|-3-3-5-2-(2)-3-2----||-3-3-5-2-2-[3]-------|
|-----------------3-o||---------------------|
|--------------------||---------------------|
|--------------------||---------------------|
|-------------------o||---------------------|
|--------------------||---------------------|
|
| E E E E  E  E E E     E E E E E  E  E E
|--------------------||---------------------|
|-------------------o||---------------------|
|--------------------||---------------------|
|--------------------||---------------------|
|-5-5-5-5--5--5-5-5-o||-5-5-5-5-5--5--5-5---|
|-3-3-3-3--2--2-2-2--||-3-3-3-3-2--2--2-2---|


                          Third Pre-Chorus
                           N.C.
   \3____________/0__________\3
   H.           +Q           H        H
|-----------------------||-----------------|
|-[3]----------([3])----||-([3])-----------|
|-----------------------||-----------------|
|-----------------------||-----------------|
|-----------------------||-----------------|
|-----------------------||-----------------|
|
|                            PM--|
|          |----3-----|
|  Q    Q  Q Q        Q      E   E Q  H
|-----------------------||-----------------|
|-----------------------||-----------------|
|-----------------------||-----------------|
|----------5-7-------10-||-----------------|
|--2-------3-5--------8-||-----------------|
|--0--------------------||---0---0---------|


  W          W          W
|----------|----------|--------------|
|----------|----------|--------------|
|----------|----------|--------------|
|----------|----------|--------------|
|----------|----------|--------------|
|----------|----------|--------------|
|
|                              PM--|
| W          W          H    E E E E
|----------|----------|--------------|
|----------|----------|--------------|
|----------|----------|--------------|
|----------|----------|------------1-|
|----------|----------|--------2-3---|
|----------|----------|--------------|


  Gtrs I, II
  PM---------------------------------
  E E E E E E E E   E E E E E E E E
|-----------------|-----------------|
|-----------------|-----------------|
|-----------------|-----------------|
|-----------------|-----------------|
|-----------------|-----------------|
|-0-0-0-0-0-0-0-0-|-0-0-0-0-0-0-0-0-|


                                      D5E5
 -------------------------|
  E E E E E E E E   E E E E E E E E   E E Q  H
|-----------------|-----------------|-------------||
|-----------------|-----------------|-------------||
|-----------------|-----------------|-------------||
|-----------------|-----------------|-7-9---------||
|-----------------|-----------------|-5-7---------||
|-0-0-0-0-0-0-0-0-|-0-0-0-0-0-0-0-0-|-------------||


 Chorus
  E5       F#5        G5      D5
  Gtr II
   H        H         H       H
|-------------------|-----------------|
|-12-------10-------|-8-------7-------|
|--x--------x-------|-x-------x-------|
|--9--------7-------|-5-------4-------|
|-------------------|-----------------|
|-------------------|-----------------|
|
| Gtr I
|  E E E E  E E E E   E E E E E E E E
|-------------------|-----------------|
|-------------------|-----------------|
|-------------------|-----------------|
|-------------------|---------7-7-7-7-|
|--2-2-2-2--4-4-4-4-|-5-5-5-5-5-5-5-5-|
|--0-0-0-0--2-2-2-2-|-3-3-3-3---------|


  N.C.
    PM--------------------|     PM--------------------|
  E S S E S S E S S S S S S   E S S E S S E S S S S S S
|---------------------------|-----------------------------|
|---------------------------|-----------------------------|
|---------------------------|-----------------------------|
|-5-5-5-5-5-5-5-5-5-5-7-5-4-|-5-5-5-5-5-5-5-5-5-5-5-5-5---|
|---------------------------|-----------------------------|
|---------------------------|-----------------------------|
|
|   PM--------------------|     PM--------------------|
| E S S E S S E S S S S S S   E S S E S S E S S S S S S
|---------------------------|-----------------------------|
|---------------------------|-----------------------------|
|---------------------------|-----------------------------|
|---------------------------|-----------------------------|
|-3-3-3-3-3-3-3-3-3-3-5-3-2-|-3-3-3-3-3-3-3-3-3-3-5-3-2---|
|---------------------------|-----------------------------|


  C5       D5         E5      D5
   H        H         H        H
|-------------------|------------------|
|-12-------10-------|-8-------10-------|
|--x--------x-------|-x--------x-------|
|--9--------7-------|-5--------7-------|
|-------------------|------------------|
|-------------------|------------------|
|
|  E E E E  E E E E   E E E E  E E E E
|-------------------|------------------|
|-------------------|------------------|
|-------------------|------------------|
|--5-5-5-5--7-7-7-7-|-9-9-9-9--7-7-7-7-|
|--3-3-3-3--5-5-5-5-|-7-7-7-7--5-5-5-5-|
|-------------------|------------------|


  N.C.
    PM---------------------|     PM--------------------|
  E S S E S S E S S S  S S S   E S S E S S E S S S S S S
|----------------------------|-----------------------------|
|----------------------------|-----------------------------|
|----------------------------|-----------------------------|
|-9-9-9-9-9-9-9-9-9-9-10-9-7-|-9-9-9-9-9-9-9-9-9-9-9-9-9---|
|----------------------------|-----------------------------|
|----------------------------|-----------------------------|
|
|   PM---------------------|     PM--------------------|
| E S S E S S E S S S  S S S   E S S E S S E S S S S S S
|----------------------------|-----------------------------|
|----------------------------|-----------------------------|
|----------------------------|-----------------------------|
|----------------------------|-----------------------------|
|-7-7-7-7-7-7-7-7-7-7--8-7-5-|-7-7-7-7-7-7-7-7-7-7-8-7-5---|
|----------------------------|-----------------------------|


  E5       F#5        G5      D5
   H        H         H       H
|-------------------|-----------------|
|-12-------10-------|-8-------7-------|
|--x--------x-------|-x-------x-------|
|--9--------7-------|-5-------4-------|
|-------------------|-----------------|
|-------------------|-----------------|
|
|  E E E E  E E E E   E E E E E E E E
|-------------------|-----------------|
|-------------------|-----------------|
|-------------------|-----------------|
|-------------------|---------7-7-7-7-|
|--2-2-2-2--4-4-4-4-|-5-5-5-5-5-5-5-5-|
|--0-0-0-0--2-2-2-2-|-3-3-3-3---------|


  N.C.
    PM--------------------|     PM--------------------|
  E S S E S S E S S S S S S   E S S E E   S S S S S S E
|---------------------------|------------------------------|
|---------------------------|------------------------------|
|---------------------------|------------------------------|
|-5-5-5-5-5-5-5-5-5-5-7-5-4-|-5-5-5-5-0---5-4-----4--------|
|---------------------------|-----------------7-5---7-5----|
|---------------------------|------------------------------|
|
|   PM--------------------|     PM--------------------|
| E S S E S S E S S S S S S   E S S E S S S S S S S S S S
|---------------------------|------------------------------|
|---------------------------|------------------------------|
|---------------------------|------------------------------|
|---------------------------|------------------------------|
|-3-3-3-3-3-3-3-3-3-3-5-3-2-|-3-3-3-3-3-5-3-2-----2--------|
|---------------------------|-----------------5-3---5-3-2--|


  C5       D5         E5      D5
   H        H         H        H
|-------------------|------------------|
|-12-------10-------|-8-------10-------|
|--x--------x-------|-x--------x-------|
|--9--------7-------|-5--------7-------|
|-------------------|------------------|
|-------------------|------------------|
|
|  E E E E  E E E E   E E E E  E E E E
|-------------------|------------------|
|-------------------|------------------|
|-------------------|------------------|
|--5-5-5-5--7-7-7-7-|-9-9-9-9--7-7-7-7-|
|--3-3-3-3--5-5-5-5-|-7-7-7-7--5-5-5-5-|
|-------------------|------------------|


  N.C.
    PM---------------------|    ~~~
  E S S E S S E S S S  S S S    H     H
|----------------------------|-------------||
|----------------------------|-------------||
|----------------------------|-------------||
|-9-9-9-9-9-9-9-9-9-9-10-9-7-|-[9]---------||
|----------------------------|-------------||
|----------------------------|-------------||
|
|   PM---------------------|    ~~~
| E S S E S S E S S S  S S S    H     H
|----------------------------|-------------||
|----------------------------|-------------||
|----------------------------|-------------||
|----------------------------|-------------||
|-7-7-7-7-7-7-7-7-7-7--8-7-5-|-[7]---------||
|----------------------------|-------------||


 Outro
  PM----------------------------------------------------------------|
  S S S S S S S S S S S S S  S S S   S S S S S S S S S S S S S  S S S
|----------------------------------|----------------------------------|
|----------------------------------|----------------------------------|
|----------------------------------|----------------------------------|
|-9-9-9-9-9-9-9-9-9-9-9-9-9-10-9-7-|-9-9-9-9-9-9-9-9-9-9-9-9-9-10-9-7-|
|----------------------------------|----------------------------------|
|----------------------------------|----------------------------------|
|
| PM----------------------------------------------------------------|
| S S S S S S S S S S S S S  S S S   S S S S S S S S S S S S S  S S S
|----------------------------------|----------------------------------|
|----------------------------------|----------------------------------|
|----------------------------------|----------------------------------|
|----------------------------------|----------------------------------|
|-7-7-7-7-7-7-7-7-7-7-7-7-7--8-7-5-|-7-7-7-7-7-7-7-7-7-7-7-7-7--8-7-5-|
|----------------------------------|----------------------------------|


  E5    D5    C5                     N.C.               E5
                             \3
  PM--------| ~~~~~~~~~
  E E E E E E Q    +Q   Q    H         H                Q  Q
|----------------|-----------------|--------------------------*|
|----------------|-----------------|--------------------------*|
|----------------|----------[1]----|-/18\---------------------*|
|---4-5-7-5-4-5--|-(5)--0----------|--------------------------*|
|-7--------------|------0----------|--------------------2-----*|
|----------------|------0----------|--------------------0-----*|
|
| Q   E E Q   Q    +H        H         S  S S S S S S S Q  Q
|----------------|-----------------|--------------------------*|
|----------------|-----------------|--------------------------*|
|----------------|-----------------|---5--4-----4-------------*|
|-9-----7-----5--|-(5)-------------|--------7-5---7-5-4-------*|
|-7-----5-----3--|-(3)-----/18\----|--------------------7-----*|
|----------------|---------/18\----|--------------------------*|


Duration Legend
---------------
W - whole; H - half; Q - quarter; E - 8th; S - 16th; T - 32nd; X - 64th; a - acciaccatura
+ - note tied to previous; . - note dotted; .. - note double dotted
Uncapitalized letters represent notes that are staccato (1/2 duration)
Irregular groupings are notated above the duration line
Duration letters will always appear directly above the note/fret number it represents the
duration for.  Duration letters with no fret number below them represent rests.  Multi-
bar rests are notated in the form Wxn, where n is the number of bars to rest for.  Low
melody durations appear below the staff

Tablature Legend
----------------
 h   - hammer-on
 p   - pull-off
 b   - bend
 pb  - pre-bend
 r   - bend release (if no number after the r, then release immediately)
 /\  - slide into or out of (from/to "nowhere")
 s   - legato slide
 S   - shift slide
  - natural harmonic
[n]  - artificial harmonic
n(n) - tapped harmonic
 ~   - vibrato
 tr  - trill
 T   - tap
 TP  - trem. picking
 PM  - palm muting
\n/  - tremolo bar dip; n = amount to dip
 \n  - tremolo bar down
 n/  - tremolo bar up
/n\  - tremolo bar inverted dip
 =   - hold bend; also acts as connecting device for hammers/pulls
 <>  - volume swell (louder/softer)
 x   - on rhythm slash represents muted slash
 o   - on rhythm slash represents single note slash

Misc Legend
-----------
 |  - bar
||  - double bar
||o - repeat start
o|| - repeat end
*|  - double bar (ending)
 :  - bar (freetime)
 $  - Segno
 &  - Coda
Tempo markers -  = BPM(8/16=s8/s16), where s8 = swing 8ths, s16 = swing 16ths
Comments