Children Of Bodom - Needled 247 Chords & Tabs

 

Needled 247 Chords & Tabs

Children Of Bodom Chords & Tabs

Version: 4 Type: Tab 0 ratings
1 star 2 stars 3 stars 4 stars 5 stars
comments

Needled 247 Tab

Children of Bodom
Needled 24/7
Hate Crew Death Roll
Tabbed by Kevin Cruz

Tune all strings down one whole step

|----------15-17-15------------|-------15-17-15-------|
|-18b--r18----------18-17-15~--|-15-18----------18-17-|
|------------------------------|----------------------|
|------------------------------|----------------------|
|------------------------------|----------------------|
|------------------------------|----------------------|

|-----20----20h23-20h23-20h23-20h23-|-19--22h23p22h23p22h23p22h23-|
|-16-----16-------------------------|-----------------------------|
|-----------------------------------|-----------------------------|
|-----------------------------------|-----------------------------|
|-----------------------------------|-----------------------------|
|-----------------------------------|-----------------------------|
[ Tab from: http://www.guitartabs.cc/tabs/c/children_of_bodom/needled_247_tab_ver_4.html ]
|-17h18p17h18p17h18p17h18-10h11p10h11p10h11p10h11-|
|-------------------------------------------------|
|-------------------------------------------------|
|-------------------------------------------------|
|-------------------------------------------------|
|-------------------------------------------------|

|---------------------17--151718151718201918171817---------------|
|-181715--151718151718--18------------------------201918171817---|
|-------17----------------------------------------------------19-|
|----------------------------------------------------------------|
|----------------------------------------------------------------|
|----------------------------------------------------------------|

|-----------/18--|-20-20-20-20-20-20-20-20b-|
|------/16-------|--------------------------|
|-/17------------|--------------------------|
|----------------|--------------------------|
|----------------|--------------------------|
|----------------|--------------------------|
Comments