Children Of Bodom - Needled 247 Chords & Tabs

 

Needled 247 Chords & Tabs

Children Of Bodom Chords & Tabs

Version: 2 Type: Tab 4 ratings
1 star 2 stars 3 stars 4 stars 5 stars
comments

Needled 247 Tab

   
                                        needled 24\7
                                      children of bodom
                                          tabbed by 
                                        sadistikslave


tune down one whole step (D G C F A D)
heavy distorton

verse rhythm
--------------------------------]---------------------------]-----------------------------
--------------------------------]---------------------------]-----------------------------
--------------------------------]---------------------------]-----------------------------
----10-9------------------------]---------------------------]-10-9------------------------
-----8-7------------------------]----------------10-14-9-12-]--8-7------------------------
-----------0-0-0-0-0-0-0-0-0-0--]--0-0-0-0-0-0-0------------]-------0-0-0-0-0-0-0-0-0-0---


----------------------------------------]-------------------]-----------------15-----15---
----------------------------------------]-------------------]------------13---------------
----------------------------------------]--2---------2------]---2--------12---------------
-------------9----7----9----------------]--2---------2------]---2-------------------------
-------------7----5----7----------------]--0---------0------]---0-------------------------
---0----0--------------------8--8--7--7-]-------------------]-----------------------------


-----------------------------]-------------------------------------------------------------
-----------------------------]-------------------------------------------------------------
-----------------------------]-------------------------------------------------------------
-10-9------------------------]--------9--7--9----------------------------------------------
--8-7------------------------]--------7--5--7----------------------------------------------
--------0-0-0-0-0-0-0-0-0-0--]--0--0-------------8-8-7-7-----------------------------------



[ Tab from: http://www.guitartabs.cc/tabs/c/children_of_bodom/needled_247_tab_ver_2.html ]
--------------------------------]---------------------------]-----------------------------
--------------------------------]---------------------------]-----------------------------
--------------------------------]---------------------------]-----------------------------
----10-9------------------------]---------------------------]-10-9------------------------
-----8-7------------------------]----------------10-14-9-12-]--8-7------------------------
-----------0-0-0-0-0-0-0-0-0-0--]--0-0-0-0-0-0-0------------]-------0-0-0-0-0-0-0-0-0-0---


----------------------------------------]-------------------]----------------------------
----------------------------------------]-------------------]----------------------------
----------------------------------------]--2---------2------]---2-------------5----------
-------------9----7----9----------------]--2---------2------]---2-------------5----------
-------------7----5----7----------------]--0---------0------]---0-------------3----------
---0----0--------------------8--8--7--7-]-------------------]----------------------------


-----------------------------]--------------------------]--------------------------------
-----------------------------]--------------------------]--------------------------------
-----------------------------]--------------------------]--------------------------------
-10-9------------------------]--9-----9\8---------------]--------------------------------
--8-7------------------------]-----7-------6--------6---]--------------------------------
--------0-0-0-0-0-0-0-0-0-0--]----------------7--8------]----0---0-----------------------


 chorus rhythm                                                             play this part twice    
------------------------------]----------------------------[-----------------------------------
------------------------------]----------------------------[-----------------------------------
------------------------------[------------------------0---[-----------------------------------
--2-----------4---------------[---5----------7-------------[-----------------------------------
--2-----------4---------------[---5----------5-------------[-3--3-3-3-3-3--3-2------3-2--5-3-2-
--0-----------2---------------]---3------------------------[--------------------5-3------5-3-2-

                                                             playthis part twice
-------------------------]------------------------------[-------------------------------------
-------------------------]------------------------------[-------------------------------------
-------------------------]------------------------------[-------------------------------------
---5--------7------------]-----9----------7-------------[-------------------------------------
---3--------5------------]-----7----------5-------------[--7-7-7-7-7-7-7-7-7-7-7-7-7-8-7-5----
------------------------]-------------------------------[-------------------------------------

Comments