Children Of Bodom - Kissing The Shadows Chords & Tabs

 

Kissing The Shadows Chords & Tabs

Children Of Bodom Chords & Tabs

Version: 1 Type: Tab 3 ratings
1 star 2 stars 3 stars 4 stars 5 stars
comments

Kissing The Shadows Tab

                              Kissing the Shadows                               


Alexi
                                                                            
D||----------|--------------------------------|----------------------------|
A||----------|--------------------------------|----------------------------|
F||----------|--------------------------10----|------------------7---------|
C||----------|--5-7---------------------10----|--5-7-------------7----7----|
G||----------|------0-0-0-0-0-0-0-0-0-0-8-----|------0-0-0-0-0-0-5---------|
D||----------|--------------------------------|----------------------------|


                                                             
-------------------------------|----------------------------|
-------------------------------|----------------------------|
--------------------------7----|------------------4----5----|
--5-7---------------------5----|--5-7-------------2----3----|
------0-0-0-0-0-0-0-0-0-0------|------0-0-0-0-0-0-----------|
-------------------------------|----------------------------|


                                                              
--------------------------------|----------------------------|
--------------------------------|----------------------------|
--------------------------10----|------------------7---------|
--5-7---------------------10----|--5-7-------------7----7----|
------0-0-0-0-0-0-0-0-0-0-8-----|------0-0-0-0-0-0-5---------|
--------------------------------|----------------------------|


                                                         
-------------------------------|------------------------|
-------------------------------|------------------------|
--------------------------7----|------------------------|
--5-7---------------------5----|--5----7----10----10----|
------0-0-0-0-0-0-0-0-0-0------|--3----5----8-----10----|
-------------------------------|------------------------|


                                                                      
----------------------------------|----------------------------------|
----------------------------------|----------------------------------|
----------------------------------|----------------------------------|
--4-4-4-4-4-4-4-4-----------------|--4-4-4-4-4-4-4-4-----------------|
--2-2-2-2-2-2-2-2-4-4-4-4-4-4-4-4-|--2-2-2-2-2-2-2-2-4-4-4-4-4-4-4-4-|
------------------2-2-2-2-2-2-2-2-|------------------2-2-2-2-2-2-2-2-|


                                                                      
----------------------------------|----------------------------------|
----------------------------------|----------------------------------|
----------------------------------|----------------------------------|
--7-7-7-7-7-7-7-7-----------------|--4-4-4-4-4-4-4-4-----------------|
--5-5-5-5-5-5-5-5-7-7-7-7-7-7-7-7-|--2-2-2-2-2-2-2-2-4-4-4-4-4-4-4-4-|
------------------5-5-5-5-5-5-5-5-|------------------2-2-2-2-2-2-2-2-|


                                                                      
----------------------------------|----------------------------------|
----------------------------------|----------------------------------|
----------------------------------|----------------------------------|
--4-4-4-4-4-4-4-4-----------------|--4-4-4-4-4-4-4-4-----------------|
--2-2-2-2-2-2-2-2-4-4-4-4-4-4-4-4-|--2-2-2-2-2-2-2-2-4-4-4-4-4-4-4-4-|
------------------2-2-2-2-2-2-2-2-|------------------2-2-2-2-2-2-2-2-|


                                                                      
----------------------------------|----------------------------------|
----------------------------------|----------------------------------|
----------------------------------|----------------------------------|
--7-7-7-7-7-7-7-7-----------------|--4-4-4-4-4-4-4-4-----------------|
--5-5-5-5-5-5-5-5-7-7-7-7-7-7-7-7-|--2-2-2-2-2-2-2-2-4-4-4-4-4-4-4-4-|
------------------5-5-5-5-5-5-5-5-|------------------2-2-2-2-2-2-2-2-|


                                                                        
--14-12-10----------15-14-12----------------------|--------------------|
-----------14-12-10----------15-14-12-------------|--------------------|
--------------------------------------14-12-------|--------------------|
--------------------------------------------16-14-|--12~---------------|
--------------------------------------------------|--------------------|
--------------------------------------------------|--------------------|


                                               
----------------------------------------------|
--------8-8-10-10-------13-13-10-10-12-12-8-8-|
--10-10-----------10-10-----------------------|
----------------------------------------------|
----------------------------------------------|
----------------------------------------------|


                                                                           
------------------------------------------|-------------------------------|
------8-8-10-10-----13-13-10-10-12-12-8-8-|-------------------------------|
--9-9-----------9-9-----------------------|-------------------------------|
------------------------------------------|-------------------------------|
------------------------------------------|--0-0-0--0--0-0--0-0-0-0-0-0-0-|
------------------------------------------|-------------------------------|


                                                                             
-----------------------------|----------------------------------------------|
-----------------------------|--------8-8-10-10-------13-13-10-10-12-12-8-8-|
-----------------------------|--10-10-----------10-10-----------------------|
-----------------------------|----------------------------------------------|
--0-0-0--0--0-0-0-0--0-0--0--|----------------------------------------------|
-----------------------------|----------------------------------------------|


                                                                           
------------------------------------------|-------------------------------|
------8-8-10-10-----13-13-10-10-12-12-8-8-|-------------------------------|
--9-9-----------9-9-----------------------|-------------------------------|
------------------------------------------|-------------------------------|
------------------------------------------|--0-0-0--0--0-0--0-0-0-0-0-0-0-|
------------------------------------------|-------------------------------|


                                                                     
-----------------------------|--------------------------------------|
-----------------------------|----------14-15-17--15-14-15-14-------|
-----------------------------|--16----------------------------16-14-|
-----------------------------|--------------------------------------|
--0-0-0--0--0-0-0-0--0-0--0--|--------------------------------------|
-----------------------------|--------------------------------------|


                                       
--------------------17-15-14----------|
----------14-15-17-----------17-15-14-|
--16----------------------------------|
--------------------------------------|
--------------------------------------|
--------------------------------------|


                                                   
--------14----17-15-14----------------15-14-------|
--15-17----15----------17-14-15-17-14-------17-15-|
--------------------------------------------------|
--------------------------------------------------|
--------------------------------------------------|
--------------------------------------------------|


                                                   
--------------14-15-14----14----------------------|
-----14-15-17----------17----17-15-14-15-14-------|
--16----------------------------------------16-14-|
--------------------------------------------------|
--------------------------------------------------|
--------------------------------------------------|


                                                                              
--------------------------------------|--------------------17-15-14----------|
----------14-15-17--15-14-15-14-------|----------14-15-17-----------17-15-14-|
--16----------------------------16-14-|--16----------------------------------|
--------------------------------------|--------------------------------------|
--------------------------------------|--------------------------------------|
--------------------------------------|--------------------------------------|


                                                   
--------14----17-15-14----------------15-14-------|
--15-17----15----------17-14-15-17-14-------17-15-|
--------------------------------------------------|
--------------------------------------------------|
--------------------------------------------------|
--------------------------------------------------|


                                                                         
--------------14-15-14----14----------------------|--19-----------------|
-----14-15-17----------17----17-15-14-15-14-------|---------------------|
--16----------------------------------------16-14-|--4-----------2------|
--------------------------------------------------|--4-----------2------|
--------------------------------------------------|--2-----------0------|
--------------------------------------------------|---------------------|


                                                                     
-----------------------|--------------------|-----------------------|
-----------------------|--------------------|-----------------------|
--4--------------------|--4----------2------|--4--------------------|
--4----------5----7----|--4----------2------|--4----------5----7----|
--2----------5----7----|--2----------0------|--2----------5----7----|
---------3-3-3----5----|--------------------|---------3-3-3----5----|


                                           
------14-12-14----------------------------|
--12------------15-14-15--12-11-12--15-14-|
------------------------------------------|
------------------------------------------|
------------------------------------------|
------------------------------------------|


                                               
----------------------12-14-12----------------|
--15--12-11-12--14-15----------15-14-12-11-14-|
----------------------------------------------|
----------------------------------------------|
----------------------------------------------|
----------------------------------------------|


                                           
------14-12-14----------------------------|
--12------------15-14-15--12-11-12--15-14-|
------------------------------------------|
------------------------------------------|
------------------------------------------|
------------------------------------------|


                                                                       
----------------------12-14-12----------12-14-12----------14-12-------|
--15--12-11-12--14-15----------15-14-12----------15-14-12-------15-14-|
----------------------------------------------------------------------|
----------------------------------------------------------------------|
----------------------------------------------------------------------|
----------------------------------------------------------------------|


                                           
------14-12-14----------------------------|
--12------------15-14-15--12-11-12--15-14-|
------------------------------------------|
------------------------------------------|
------------------------------------------|
------------------------------------------|


                                               
----------------------12-14-12----------------|
--15--12-11-12--14-15----------15-14-12-11-14-|
----------------------------------------------|
----------------------------------------------|
----------------------------------------------|
----------------------------------------------|


                                           
------14-12-14----------------------------|
--12------------15-14-15--12-11-12--15-14-|
------------------------------------------|
------------------------------------------|
------------------------------------------|
------------------------------------------|


                                                                                
----------------------12-14-12----------------12-14-12----14-12-------15-14-----
--15--12-11-12--14-15----------15-14-12-14-15----------15-------15-14-------17-1
--------------------------------------------------------------------------------
--------------------------------------------------------------------------------
--------------------------------------------------------------------------------
--------------------------------------------------------------------------------


                                                              
-------------------------------|-----------------------------|
-------------------------------|-----------------------------|
-------------------------------|-----------------------------|
-------------------------------|-----------------------------|
--2-2-2--2--2-2--2-2-2-2-2-2-2-|--2-2-2--2--2-2-2-2--2-2--2--|
-------------------------------|-----------------------------|


                                                  
-----------------------------|-------------------|
-----------------------------|-------------------|
-----------------------------|--3~---------------|
-----------------------------|--4~---------------|
--2-2-2--2--2-2-2-2--2-2-----|-------------------|
--------------------------2--|-------------------|


                                               
----------------------------------------------|
--------8-8-10-10-------13-13-10-10-12-12-8-8-|
--10-10-----------10-10-----------------------|
----------------------------------------------|
----------------------------------------------|
----------------------------------------------|


                                                                           
------------------------------------------|-------------------------------|
------8-8-10-10-----13-13-10-10-12-12-8-8-|-------------------------------|
--9-9-----------9-9-----------------------|-------------------------------|
------------------------------------------|-------------------------------|
------------------------------------------|--0-0-0--0--0-0--0-0-0-0-0-0-0-|
------------------------------------------|-------------------------------|


                                                                             
-----------------------------|----------------------------------------------|
-----------------------------|--------8-8-10-10-------13-13-10-10-12-12-8-8-|
-----------------------------|--10-10-----------10-10-----------------------|
-----------------------------|----------------------------------------------|
--0-0-0--0--0-0-0-0--0-0--0--|----------------------------------------------|
-----------------------------|----------------------------------------------|


                                                                           
------------------------------------------|-------------------------------|
------8-8-10-10-----13-13-10-10-12-12-8-8-|-------------------------------|
--9-9-----------9-9-----------------------|-------------------------------|
------------------------------------------|-------------------------------|
------------------------------------------|--0-0-0--0--0-0--0-0-0-0-0-0-0-|
------------------------------------------|-------------------------------|


                                                                             
------------------------|--------------------------|------------------------|
------------------------|--------------------------|-----------3------------|
--5---5-5--5--5----5----|-----9--9--4-------4------|-----5--5--4------------|
------------------------|-----7--7--5-------5------|-----7--7--5-------5----|
------------------------|--0-------------0-----0-0-|--0-------------0-------|
------------------------|--------------------------|------------------------|


                                                                              
----------------------------|--------------10--------------------------------|
----------------------10-12-|--13-10-12-13----13-12-10-----------------------|
-----9--9--9-------9--------|--------------------------12-10-9---------------|
-----7--7--7-------7--------|----------------------------------12-10-9-------|
--0-------------0-----------|------------------------------------------12-10-|
----------------------------|------------------------------------------------|


                                                      
--------------------------|--------------------------|
--------------------------|--------------------------|
-----9--9--4-------4------|-----9--9--4-------4------|
-----7--7--5-------5------|-----7--7--5-------5------|
--0-------------0-----0-0-|--0-------------0-----0-0-|
--------------------------|--------------------------|


                                                                              
----------------------------|--------------10--------------------------------|
----------------------10-12-|--13-10-12-13----13-12-10-----------------------|
-----9--9--4-------4--------|--------------------------12-10-9---------------|
-----7--7--5-------5--------|----------------------------------12-10-9-------|
--0-------------0-----------|------------------------------------------12-10-|
----------------------------|------------------------------------------------|


                                                              
--------------------------------|----------------------------|
--------------------------------|----------------------------|
--------------------------10----|------------------7---------|
--5-7---------------------10----|--5-7-------------7----7----|
------0-0-0-0-0-0-0-0-0-0-8-----|------0-0-0-0-0-0-5---------|
--------------------------------|----------------------------|


                                                             
-------------------------------|----------------------------|
-------------------------------|----------------------------|
--------------------------7----|------------------4----5----|
--5-7---------------------5----|--5-7-------------2----3----|
------0-0-0-0-0-0-0-0-0-0------|------0-0-0-0-0-0-----------|
-------------------------------|----------------------------|


                                                              
--------------------------------|----------------------------|
--------------------------------|----------------------------|
--------------------------10----|------------------7---------|
--5-7---------------------10----|--5-7-------------7----7----|
------0-0-0-0-0-0-0-0-0-0-8-----|------0-0-0-0-0-0-5---------|
--------------------------------|----------------------------|


                                                         
-------------------------------|------------------------|
-------------------------------|------------------------|
--------------------------7----|------------------------|
--5-7---------------------5----|--5----7----10----10----|
------0-0-0-0-0-0-0-0-0-0------|--3----5----8-----10----|
-------------------------------|------------------------|


                                                                              
--------------------------------------|--------------------17-15-14----------|
----------14-15-17--15-14-15-14-------|----------14-15-17-----------17-15-14-|
--16----------------------------16-14-|--16----------------------------------|
--------------------------------------|--------------------------------------|
--------------------------------------|--------------------------------------|
--------------------------------------|--------------------------------------|


                                                   
--------14----17-15-14----------------15-14-------|
--15-17----15----------17-14-15-17-14-------17-15-|
--------------------------------------------------|
--------------------------------------------------|
--------------------------------------------------|
--------------------------------------------------|


                                                   
--------------14-15-14----14----------------------|
-----14-15-17----------17----17-15-14-15-14-------|
--16----------------------------------------16-14-|
--------------------------------------------------|
--------------------------------------------------|
--------------------------------------------------|


                                                                              
--------------------------------------|--------------------17-15-14----------|
----------14-15-17--15-14-15-14-------|----------14-15-17-----------17-15-14-|
--16----------------------------16-14-|--16----------------------------------|
--------------------------------------|--------------------------------------|
--------------------------------------|--------------------------------------|
--------------------------------------|--------------------------------------|

[ Tab from: http://www.guitartabs.cc/tabs/c/children_of_bodom/kissing_the_shadows_tab.html ]
                                                   
--------14----17-15-14----------------15-14-------|
--15-17----15----------17-14-15-17-14-------17-15-|
--------------------------------------------------|
--------------------------------------------------|
--------------------------------------------------|
--------------------------------------------------|


                                                                         
--------------14-15-14----14----------------------|--19-----------------|
-----14-15-17----------17----17-15-14-15-14-------|---------------------|
--16----------------------------------------16-14-|--4-----------2------|
--------------------------------------------------|--4-----------2------|
--------------------------------------------------|--2-----------0------|
--------------------------------------------------|---------------------|


                                                                     
-----------------------|--------------------|-----------------------|
-----------------------|--------------------|-----------------------|
--4--------------------|--4----------2------|--4--------------------|
--4----------5----7----|--4----------2------|--4----------5----7----|
--2----------5----7----|--2----------0------|--2----------5----7----|
---------3-3-3----5----|--------------------|---------3-3-3----5----|


                                           
------14-12-14----------------------------|
--12------------15-14-15--12-11-12--15-14-|
------------------------------------------|
------------------------------------------|
------------------------------------------|
------------------------------------------|


                                               
----------------------12-14-12----------------|
--15--12-11-12--14-15----------15-14-12-11-14-|
----------------------------------------------|
----------------------------------------------|
----------------------------------------------|
----------------------------------------------|


                                           
------14-12-14----------------------------|
--12------------15-14-15--12-11-12--15-14-|
------------------------------------------|
------------------------------------------|
------------------------------------------|
------------------------------------------|


                                                                       
----------------------12-14-12----------12-14-12----------14-12-------|
--15--12-11-12--14-15----------15-14-12----------15-14-12-------15-14-|
----------------------------------------------------------------------|
----------------------------------------------------------------------|
----------------------------------------------------------------------|
----------------------------------------------------------------------|


                                           
------14-12-14----------------------------|
--12------------15-14-15--12-11-12--15-14-|
------------------------------------------|
------------------------------------------|
------------------------------------------|
------------------------------------------|


                                               
----------------------12-14-12----------------|
--15--12-11-12--14-15----------15-14-12-11-14-|
----------------------------------------------|
----------------------------------------------|
----------------------------------------------|
----------------------------------------------|


                                           
------14-12-14----------------------------|
--12------------15-14-15--12-11-12--15-14-|
------------------------------------------|
------------------------------------------|
------------------------------------------|
------------------------------------------|


                                                                                
----------------------12-14-12----------------12-14-12----14-12-------15-14-----
--15--12-11-12--14-15----------15-14-12-14-15----------15-------15-14-------17-1
--------------------------------------------------------------------------------
--------------------------------------------------------------------------------
--------------------------------------------------------------------------------
--------------------------------------------------------------------------------


                                                   
--12-14-12----------------12-14-12----14-12-------|
-----------15-14-12-14-15----------15-------15-14-|
--------------------------------------------------|
--------------------------------------------------|
--------------------------------------------------|
--------------------------------------------------|


                                                                           
--15-14----------14-15-18-19-18-15-14-------------|-----------------------|
--------17-15-17----------------------17-15-14----|-----------------------|
-----------------------------------------------16-|-----------------------|
--------------------------------------------------|--8----9----------8----|
--------------------------------------------------|------------10---------|
--------------------------------------------------|-----------------------|


                                                      
--------------|-------------------|------------------|
--------------|-------------------|------------------|
--7--5--4--2--|-------------------|------------------|
--7--5--4--2--|--5----------------|------------------|
--5--3--2--0--|--5----------------|------------------|
--------------|--3----------------|------------------|


                                     
--17-17-17-17-17--17--17--17~-------|
------------------------------------|
------------------------------------|
------------------------------------|
------------------------------------|
------------------------------------|


                                                         
--17-18-17----17-18-22-17-18-21-17-18-17----------------|
-----------20----------------------------20-20-17-18-17-|
--------------------------------------------------------|
--------------------------------------------------------|
--------------------------------------------------------|
--------------------------------------------------------|


                                                   
--------------------------------------------------|
--------------------------------------------------|
--19-18-------18-------18-------18-------18-------|
--------20-19-------------20-19-------------20-19-|
-----------------20-19-------------20-19----------|
--------------------------------------------------|


                                             
--------------------18-17-15-17-18-22-21r---|
--------------------------------------------|
-----------21-19-18-------------------------|
--20-19-17----------------------------------|
--------------------------------------------|
--------------------------------------------|


                                                                        
-----------10-12-13-12-10----------------------------------------------|
--10-12-13----------------13-12-10-13-12-10----------------------------|
--------------------------------------------12-10-9-12-10-9------------|
------------------------------------------------------------12-10-9-12-|
-----------------------------------------------------------------------|
-----------------------------------------------------------------------|


                                              
---------------------------------------------|
---------------------------------------------|
----------------------------------9b---------|
--10-9---------------------------------------|
-------12-10-8-12-10-8-----------------------|
-----------------------12-10-8-10------------|


                                                                        
----------------8-10-8----------------------------10-12-10-------------|
-------------10--------10----------------------12----------12----------|
----------10--------------10----------------12----------------12-------|
-------10--------------------10----------12----------------------12----|
--8-12--------------------------12-10-14----------------------------14-|
-----------------------------------------------------------------------|


                                                                            
------------------------------------------------------20-24/20-------------|
---------------------------------------------------------------20----------|
------------------------------------17-19-21-16-17-19-------------21-17----|
---------------------------14-15-17-------------------------------------17-|
----------8-10-12-14-15-17-------------------------------------------------|
--8-10-12------------------------------------------------------------------|


                                                                      
---------------------------------|-----------------------------------|
---------------------------------|-----------------------------------|
---------------------------------|-----------------------------------|
--9------------------------------|--9--------------------------------|
--9--------------10--14--12--10--|--9----------------------7-7-10-10-|
--7--7-7-7-7-7-7-8---12--10--8---|--7--7-7-7-7-7-7-8-8-8-8-----------|


                                                                      
---------------------------------|-----------------------------------|
---------------------------------|-----------------------------------|
---------------------------------|-----------------------------------|
--9------------------------------|--9--------------------------------|
--9--------------10--14--12--10--|--9----------------------7-7-10-10-|
--7--7-7-7-7-7-7-8---12--10--8---|--7--7-7-7-7-7-7-8-8-8-8-----------|


                                                                            
--------------------|---------------------------------|--------------------|
--------------------|---------------------------------|--------------------|
--------------------|---------------------------------|--------------------|
--5--------7--------|--9------------------------------|--5--------7--------|
--5--------7--------|--9------------------------------|--5--------7--------|
--3--------5--------|--7--7-7-7-7-7-7-7-7-7-7-7-7-7-7-|--3--------5--------|


                                
-------------------------------|
-------------------------------|
-------------------------------|
--9------------------9---------|
--9------------------9----7/---|
--7--7-7-7-7-7-7-7-7-7---------|


                                                                           
--18-17-15----------------------------------------------------------------|
-----------18-17-15-18-17-15----------------------------------------------|
-----------------------------17-15-14-17-15-14----------------------------|
-----------------------------------------------17-15-14-17-15-14----------|
-----------------------------------------------------------------17-15-13-|
--------------------------------------------------------------------------|


                                                                              
------------------------------------|--15b-15b15b-15b15b---15h13h15h13/15h13-|
------------------------------------|--16b-16b16b-16b16b---------------------|
------------------------------------|----------------------------------------|
--------12-14-15-14-12----12--------|----------------------------------------|
--12-15----------------15-----------|----------------------------------------|
------------------------------------|----------------------------------------|


                                             
--15h13/15h13h15h13/15h13h17h-15h-13h-------|
--------------------------------------15~---|
--------------------------------------------|
--------------------------------------------|
--------------------------------------------|
--------------------------------------------|


                                                                           
--------------13-17/22-17----------------------------13-15-13-------------|
-----------15-------------18----------------------15----------15----------|
--------14-------------------19-14-------------15----------------15-------|
-----15----------------------------15-------15----------------------15----|
--17----------------------------------13-17----------------------------17-|
--------------------------------------------------------------------------|


                                                                         
-----------------15-17-15----------------------------------------18-20--|
--------------------------17-------------------------17-18-20h22--------|
--------------17-------------17-------------15-17-19--------------------|
-----------17-------------------17----17-19-----------------------------|
--15-19-17-------------------------19-----------------------------------|
------------------------------------------------------------------------|


                                           
--22/-22----------------------------------|
----------18-22----18------------------18-|
----------------17-----17----17-----17----|
--------------------------19-----19-------|
------------------------------------------|
------------------------------------------|


                                                                           
-----------15----------------15-17-18-20-18-17----------------------------|
--15-17-18----18-17-15-18-17-------------------20-18-17-15-18-17-15-------|
--------------------------------------------------------------------18-17-|
--------------------------------------------------------------------------|
--------------------------------------------------------------------------|
--------------------------------------------------------------------------|


                                                                  
------------------------|------------------|---------------------|
------------------------|------------------|---------------------|
--16----16--16----------|------------------|--9------7--5--------|
------------------------|------------------|--9------7--5--------|
------------------------|------------------|--7------5--3--------|
------------------------|------------------|---------------------|


                                                                    
----------------------|---------------------|----------------------|
----------------------|---------------------|----------------------|
--5---7---7--9--------|--9------7--5--------|--5---7---7--9--------|
--5---7---7--9--------|--9------7--5--------|--5---7---7--9--------|
--3---5---5--7--------|--7------5--3--------|--3---5---5--7--------|
----------------------|---------------------|----------------------|


                                            
---------------------|-----------22b-------|
---------------------|---------------------|
---------------------|---------------------|
--9------4--5--------|--7------------------|
--9------4--5--------|--7------------------|
--7------2--3--------|--5------------------|


                                                                           
--22-19----------19-20-17----------17-19-15----------15-17-14----------14-|
--------20----20----------19----19----------17----17----------16----16----|
-----------21----------------20----------------16----------------17-------|
--------------------------------------------------------------------------|
--------------------------------------------------------------------------|
--------------------------------------------------------------------------|


                                                               
--15-12----------------------------12-15----------------19~---|
--------12----------------------12-------17----------17-------|
-----------12----------------12-------------16----16----------|
--------------14----------14-------------------17-------------|
-----------------14----14-------------------------------------|
--------------------12----------------------------------------|


                                                                           
--22-19----------19-20-17----------17-19-15----------15-17-14----------14-|
--------20----20----------19----19----------17----17----------16----16----|
-----------21----------------20----------------16----------------17-------|
--------------------------------------------------------------------------|
--------------------------------------------------------------------------|
--------------------------------------------------------------------------|


                                                               
--15-12----------------------------12-15----------------19~---|
--------12----------------------12-------17----------17-------|
-----------12----------------12-------------16----16----------|
--------------14----------14-------------------17-------------|
-----------------14----14-------------------------------------|
--------------------12----------------------------------------|


                                                                           
--22-19----------19-20-17----------17-19-15----------15-17-14----------14-|
--------20----20----------19----19----------17----17----------16----16----|
-----------21----------------20----------------16----------------17-------|
--------------------------------------------------------------------------|
--------------------------------------------------------------------------|
--------------------------------------------------------------------------|


                                                               
--15-12----------12-15-12----------12-14-11----------11/22b---|
--------13----13----------12----12----------12----12----------|
-----------12----------------12----------------11-------------|
--------------------------------------------------------------|
--------------------------------------------------------------|
--------------------------------------------------------------|


                                                                           
--22-19----------19-20-17----------17-19-15----------15-17-14----------14-|
--------20----20----------19----19----------17----17----------16----16----|
-----------21----------------20----------------16----------------17-------|
--------------------------------------------------------------------------|
--------------------------------------------------------------------------|
--------------------------------------------------------------------------|


                                                               
--15-12----------12-15-12----------12-14-11----------11/22b---|
--------13----13----------12----12----------12----12----------|
-----------12----------------12----------------11-------------|
--------------------------------------------------------------|
--------------------------------------------------------------|
--------------------------------------------------------------|


                                                                
------------15-------19--17-15-22--19-----|--22b---------------|
------17-19----19-17------------------20--|--------------------|
--16--------------------------------------|--------------------|
------------------------------------------|--------------------|
------------------------------------------|--------------------|
------------------------------------------|--------------------|


                                                                    
--22b19-------22-19-------------19-21b-19-----|--------------------|
--------22-20-------20-19-20-22-----------22--|--20~---------------|
----------------------------------------------|--------------------|
----------------------------------------------|--------------------|
----------------------------------------------|--------------------|
----------------------------------------------|--------------------|


                                                                           
-----------------------------------------------------------------17-19-20-|
--------------------------------------------------------17-19-20----------|
-----------------------------16-17-19----------16-17-19-------------------|
--------------------16-17-19----------16-17-19----------------------------|
-----------15-17-19-------------------------------------------------------|
--15-17-19----------------------------------------------------------------|


                                                                           
--22-20-19----------------------------------------------------------------|
-----------22-20-19-17-20-19-17-------------------------------------------|
--------------------------------19-17-16-19-17-16-------------------------|
--------------------------------------------------19-17-16-19-17-16-------|
--------------------------------------------------------------------19-17-|
--------------------------------------------------------------------------|


                                                 
---------------------------------------17-22----|
---------------------------17-20-17-19-------19-|
------------------16-19-17----------------------|
---------16-19-17-------------------------------|
--15-19-----------------------------------------|
------------------------------------------------|


                                        
--------------------------------------||
--20-20-20-20-20--20-20-20-20-20~-----||
--------------------------------------||
--------------------------------------||
--------------------------------------||
--------------------------------------||


Comments