Children Of Bodom - In Your Face Chords & Tabs

 

In Your Face Chords & Tabs

Children Of Bodom Chords & Tabs

Version: 1 Type: Tab

In Your Face Tab

e-----------------|
b-----------------|
g-----------------|
d-----------------|  X8
a--3333-3-3-33333-|
e-----------------|
  .... . . .....
[ Tab from: http://www.guitartabs.cc/tabs/c/children_of_bodom/in_your_face_tab.html ]
mixed with keyboard
e-----------------------]-------------------]----------------5-]
b-----------------------]-------------------]-----------4-7----]
g-5-7-8-10---5-----6----]-------------------]----------5-------]
d-5-5-6-8----5-5-6-6----]4-1-3--4-1-3--4-1-3]------4-7---------]
a-3----------3-5-6-4----]-----3------3------]--3-6-------------]
e--------------3-4------]-------------------]------------------]
                                                 sweep
e--------------------------------]----------------------]---------------5--]
b--------------------------------]----------------------]-----------4-7----]
g------------3-------------------]----------------------]----------5-------]
d-4-1-3--4-1------4-1-3----------]-4-1-3--4-1-3---4-1-3-]------4-7---------]
a------3-------3-------433-333333]------3------3-------3]--3-6-------------]
e--------------------------------]----------------------]------------------]
                        .. ......
e--------------------------------////--]
b-------------------------------/------]
g---------------------------5--/-------]
d-4-1-3---4-1-3---4-1-3-----5-/--------]
a------3-------3-------3----3/---------]
e---------------------------/----------]

.=palm mute

////////=whammy bar

im not really sure bout this tab but im just guessin. talk to me on msn or
email me on grifiti_90@hotmail.com if u got any suggestion or w/e good song