Children Of Bodom - Hate Me Chords & Tabs

 

Hate Me Chords & Tabs

Children Of Bodom Chords & Tabs

Version: 3 Type: Tab 0 ratings
1 star 2 stars 3 stars 4 stars 5 stars
comments

Hate Me Tab

   
ya this is my first tab plz dont criticize me like alot so try and enjoy it cus i kno
its rite and 1 more thing iam not sure of the timing.

tuning=drop D i think D G C F A D
[ Tab from: http://www.guitartabs.cc/tabs/c/children_of_bodom/hate_me_tab_ver_3.html ]
     gtr#1
|-----------5-----------------------------------------|
|------7---------9--7--5------5--7-7--5---------------|
|-------------------------6---------------6------6----|       4 times
|---------------------------------------------7-------|
|-----------------------------------------------------|
|-----------------------------------------------------|

     gtr#2
|----------15-----------------------------------------|
|-----17-------19--17-15------15-17-17--15---16----16-|
|-------------------------16---------------------17---|        4 times
|-----------------------------------------------------|
|-----------------------------------------------------|
|-----------------------------------------------------|


then when the 1st solo rolls around do the second part 3 times then hit the 16th fret
like 7 times really fast thats it enjoy! ne corrections e-mail ne@ jeremymcneil_89@hotmail.com
Comments