Children Of Bodom - Hate Me Chords & Tabs

 

Hate Me Chords & Tabs

Children Of Bodom Chords & Tabs

Version: 1 Type: Tab 2 ratings
1 star 2 stars 3 stars 4 stars 5 stars
comments

Hate Me Tab

                                   Hate Me!                                     


                                                               Children of Bodom
Ale



                                                         
E||------------------|------|------|------|------|------|
B||------------------|------|------|------|------|------|
G||------------------|------|------|------|------|------|
D||------------------|------|------|------|------|------|
A||------------------|------|------|------|------|------|
E||------------------|------|------|------|------|------|


                                                         
--------------------------|-----------------------------|
--------------------------|-----------------------12/---|
--------------------------|-----------------------------|
--9---------------9-------|-----------------------------|
--7--7----7----7--7--7----|--7----7---------7--9--------|
-----0----0----0-----0----|--0----0--7--10--------------|


                                                                                
--------------------------|-------------------------|--------------------------|
--------------------------|-------------------------|--------------------------|
--------------------------|-------------------------|--------------------------|
--9--9--9--9--7--7--7--5--|----5--5--5--7--7--7--7--|--9--9--9--9--5--5--5--2--|
--7--7--7--7--5--5--5--3--|----3--3--3--5--5--5--5--|--7--7--7--7--3--3--3--2--|
--------------------------|-------------------------|--------------------------|


                                                                               
-------------------------|--------------------------|-------------------------|
-------------------------|--------------------------|-------------------------|
-------------------------|--------------------------|-------------------------|
----2--2--2--2--2--2--2--|--9--9--9--9--7--7--7--5--|----5--5--5--7--7--7--7--|
----2--2--2--2--2--2--2--|--7--7--7--7--5--5--5--3--|----3--3--3--5--5--5--5--|
-------------------------|--------------------------|-------------------------|


                                                                                
--------------------------|-------------------------|--------------------------|
--------------------------|-------------------------|--------------------------|
--------------------------|-------------------------|--------------------------|
--9--9--9--9--5--5--5--2--|----2--2--2--2--4--5--7--|--9--9--9--9--7--7--7--5--|
--7--7--7--7--3--3--3--2--|----2--2--2--0--2--3--5--|--7--7--7--7--5--5--5--3--|
--------------------------|-------------------------|--------------------------|


                                                                               
-------------------------|--------------------------|-------------------------|
-------------------------|--------------------------|-------------------------|
-------------------------|--------------------------|-------------------------|
----5--5--5--7--7--7--7--|--9--9--9--9--5--5--5--2--|----2--2--2--2--2--2--2--|
----3--3--3--5--5--5--5--|--7--7--7--7--3--3--3--2--|----2--2--2--2--2--2--2--|
-------------------------|--------------------------|-------------------------|


                                                                                
--------------------------|-------------------------|--------------------------|
--------------------------|-------------------------|--------------------------|
--------------------------|-------------------------|--------------------------|
--9--9--9--9--7--7--7--5--|----5--5--5--7--7--7--7--|--9--9--9--9--7--7--x--x--|
--7--7--7--7--5--5--5--3--|----3--3--3--5--5--5--5--|--7--7--7--7--5--5--x--x--|
--------------------------|-------------------------|--------------------------|


                                                                              
-----------------------|--------------------------|--------------------------|
-----------------------|--------------------------|--------------------------|
-----------------------|--------------------------|--------------------------|
--2--2----2--2---------|--------------------------|-----------------4--4--2--|
--0--0----2--2------2--|--------------------------|-----------------------2--|
----------0--0------0--|----0--0--0--0-0-0--0--0--|--0--0--0--0--0-----------|


                                                         
--------------------------|-----------------------------|
--------------------------|-----------------------------|
--------------------------|-----------------------------|
--------------------------|--------------10--10--10--9--|
--------------------------|--------------------------7--|
----0--0--0--0-0-0--0--0--|--0--0--0--0--------------0--|


                                                                             
------------------------|-------------------------|-------------------------|
------------------------|-------------------------|-------------------------|
------------------------|-------------------------|-------------------------|
-------9-----9-------7--|-------7-----7--7-----5--|-------------------------|
-------7--------7----5--|----5--5--5--5--5--5--3--|----3--3--3--3--3--3--3--|
----0--0--0-------------|-------------------------|-------------------------|


                                                                               
------------------------|--------------------------|--------------------------|
------------------------|--------------------------|--------------------------|
-----------4----2-------|--------------------------|--------------------------|
-----------2----0-------|--------------------------|-----------------4--4--2--|
--3--3--3------------2--|--------------------------|-----------------------2--|
---------------------0--|----0--0--0--0-0-0--0--0--|--0--0--0--0--0-----------|


                                                         
--------------------------|-----------------------------|
--------------------------|-----------------------------|
--------------------------|-----------------------------|
--------------------------|--------------10--10--10--9--|
--------------------------|--------------------------7--|
----0--0--0--0-0-0--0--0--|--0--0--0--0--------------0--|


                                                                             
------------------------|-------------------------|-------------------------|
------------------------|-------------------------|-------------------------|
------------------------|-------------------------|-------------------------|
-------9-----9-------7--|-------7-----7--7-----5--|-------------------------|
-------7--------7----5--|----5--5--5--5--5--5--3--|----3--3--3--3--3--3--3--|
----0--0--0-------------|-------------------------|-------------------------|


                                                                
---------------------|----------------------|------------------|
---------------------|----------------------|------------------|
--------5t-----------|----------------------|------------------|
---------------------|--7-------10----------|------------------|
--3--3---------------|--7-------10----------|------------------|
---------------------|--5----5--8-----------|------------------|


                                                                         
----------------------|--------------------------|----------------------|
----------------------|--------------------------|----------------------|
----------------------|--------------------------|----------------------|
--10-------2----------|--------------------------|--7-------10----------|
--10-------2----------|--------------------------|--7-------10----------|
--8-----7--0----------|--0--0--0--0--0--0--0--0--|--5----5--8-----------|


                                                                    
------------------|-------------------------|----------------------|
------------------|-------------------------|----------------------|
------------------|-------------------------|----------------------|
------------------|-------------------------|----------------------|
------------------|--7--7--7--7--7----2--2--|--2--2--2----------2--|
------------------|--0--0--0--0--0----0--0--|--0--0--0----------0--|


                                                      
--------------------------|--------------------------|
--------------------------|--------------------------|
--------------------------|--------------------------|
--------------------------|-----------------4--4--2--|
--------------------------|-----------------------2--|
----0--0--0--0-0-0--0--0--|--0--0--0--0--0-----------|


                                                         
--------------------------|-----------------------------|
--------------------------|-----------------------------|
--------------------------|-----------------------------|
--------------------------|--------------10--10--10--9--|
--------------------------|--------------------------7--|
----0--0--0--0-0-0--0--0--|--0--0--0--0--------------0--|


                                                                             
------------------------|-------------------------|-------------------------|
------------------------|-------------------------|-------------------------|
------------------------|-------------------------|-------------------------|
-------9-----9-------7--|-------7-----7--7-----5--|-------------------------|
-------7--------7----5--|----5--5--5--5--5--5--3--|----3--3--3--3--3--3--3--|
----0--0--0-------------|-------------------------|-------------------------|


                                                                               
------------------------|--------------------------|--------------------------|
------------------------|--------------------------|--------------------------|
-----------4----2-------|--------------------------|--------------------------|
-----------2----0-------|--------------------------|-----------------4--4--2--|
--3--3--3------------2--|--------------------------|-----------------------2--|
---------------------0--|----0--0--0--0-0-0--0--0--|--0--0--0--0--0-----------|


                                                         
--------------------------|-----------------------------|
--------------------------|-----------------------------|
--------------------------|-----------------------------|
--------------------------|--------------10--10--10--9--|
--------------------------|--------------------------7--|
----0--0--0--0-0-0--0--0--|--0--0--0--0--------------0--|


                                                                             
------------------------|-------------------------|-------------------------|
------------------------|-------------------------|-------------------------|
------------------------|-------------------------|-------------------------|
-------9-----9-------7--|-------7-----7--7-----5--|-------------------------|
-------7--------7----5--|----5--5--5--5--5--5--3--|----3--3--3--3--3--3--3--|
----0--0--0-------------|-------------------------|-------------------------|


                                                                
---------------------|----------------------|------------------|
---------------------|----------------------|------------------|
--------5t-----------|----------------------|------------------|
---------------------|--7-------10----------|------------------|
--3--3---------------|--7-------10----------|------------------|
---------------------|--5----5--8-----------|------------------|


                                                                         
----------------------|--------------------------|----------------------|
----------------------|--------------------------|----------------------|
----------------------|--------------------------|----------------------|
--10-------2----------|--------------------------|--7-------10----------|
--10-------2----------|--------------------------|--7-------10----------|
--8-----7--0----------|--0--0--0--0--0--0--0--0--|--5----5--8-----------|


                                                                                
------------------|-------------------------|---------------------|------------|
------------------|-------------------------|---------------------|------------|
------------------|-------------------------|---------------------|-------5----|
------------------|-------------------------|---------------------|--2----5----|
------------------|--7--7--7--7--7----2--2--|--2--2--2------------|--0----3----|
------------------|--0--0--0--0--0----0--0--|--0--0--0------------|------------|


                                                                   
-------------------|--------------------|-------------------------|
-------------------|--------------------|-------------------------|
--7----------------|--------------------|-------------------------|
--7----------------|--5--------8--------|--7----------------------|
--5----------------|--5--------8--------|--5--------7--10--7--10--|
-------------------|--------------------|-------------------------|


                                                                        
------------------------------|-------------------|--------------------|
------------------------------|-------------------|--------------------|
------------------------------|--7----------------|--------------------|
--7--10--7--10----------------|--7----------------|--5--------8--------|
----------------7--10--7--10--|--5----------------|--5--------8--------|
------------------------------|-------------------|--------------------|


                                                              
------------------------------|------------------------------|
------------------------------|------------------------------|
------------------------------|------------------------------|
--7--10--7--10----------------|--7--10--7--10----------------|
----------------7--10--7--10--|----------------7--10--7--10--|
------------------------------|------------------------------|


                                                                        
-------------------|------------------|--------------------------------|
-------------------|------------------|--------------------------------|
-------------------|------------------|--10--14--10--14--9--12--9--12--|
--0----------------|------------------|--------------------------------|
-------------------|------------------|--------------------------------|
-------------------|------------------|--------------------------------|


                                                                  
--------------------------------|--------------------------------|
--10--13--10--13--8--13--8--13--|--------------------------------|
--------------------------------|--10--14--10--14--9--12--9--12--|
--------------------------------|--------------------------------|
--------------------------------|--------------------------------|
--------------------------------|--------------------------------|


                                                                  
--------------------------------|--------------------------------|
--10--13--10--13--8--13--8--13--|--------------------------------|
--------------------------------|--10--14--10--14--9--12--9--12--|
--------------------------------|--------------------------------|
--------------------------------|--------------------------------|
--------------------------------|--------------------------------|


                                                                  
--------------------------------|--------------------------------|
--10--13--10--13--8--13--8--13--|--------------------------------|
--------------------------------|--10--14--10--14--9--12--9--12--|
--------------------------------|--------------------------------|
--------------------------------|--------------------------------|
--------------------------------|--------------------------------|


                                                                    
--------------------------------|----------------------------------|
--10--13--10--13--8--13--8--13--|----------------------------------|
--------------------------------|--12--16--12--16--11--14--11--14--|
--------------------------------|----------------------------------|
--------------------------------|----------------------------------|
--------------------------------|----------------------------------|


                                                                      
----------------------------------|----------------------------------|
--12--15--12--15--10--15--10--15--|----------------------------------|
----------------------------------|--12--16--12--16--11--14--11--14--|
----------------------------------|----------------------------------|
----------------------------------|----------------------------------|
----------------------------------|----------------------------------|


                                                                      
----------------------------------|----------------------------------|
--12--15--12--15--10--15--10--15--|----------------------------------|
----------------------------------|--12--16--12--16--11--14--11--14--|
----------------------------------|----------------------------------|
----------------------------------|----------------------------------|
----------------------------------|----------------------------------|


                                                                      
----------------------------------|----------------------------------|
--12--15--12--15--10--15--10--15--|----------------------------------|
----------------------------------|--12--16--12--16--11--14--11--14--|
----------------------------------|----------------------------------|
----------------------------------|----------------------------------|
----------------------------------|----------------------------------|


                                   
----------------------------------|
--12--15--12--15--10--15--10--15--|
----------------------------------|
----------------------------------|
----------------------------------|
----------------------------------|


                                                   
--------------------------------------------------|
--------------------------------------------------|
--12-15-12-15-17-15-17-15-12-15-17-15-17-15-12-15-|
--------------------------------------------------|
--------------------------------------------------|
--------------------------------------------------|


                                                                
--------------------------------------------|------------------|
--------------------------------------------|------------------|
--18-15-17-15-12-15-18-15-17-15-12-15-19b---|------------------|
--------------------------------------------|------------------|
--------------------------------------------|------------------|
--------------------------------------------|------------------|


                                                             
--20b---------------|--------------------|------------------|
--------------------|--------------------|------------------|
--------------------|--------------------|------------------|
--------------------|--------------------|------------------|
--------------------|--2--2--------------|------------------|
--------------------|--0--0--------------|------------------|


                                                         
--------------------------|-----------------------------|
--------------------------|-----------------------12/---|
--------------------------|-----------------------------|
--9---------------9-------|-----------------------------|
--7--7----7----7--7--7----|--7----7---------7--9--------|
-----0----0----0-----0----|--0----0--7--10--------------|

[ Tab from: http://www.guitartabs.cc/tabs/c/children_of_bodom/hate_me_tab.html ]
                                                                                
--------------------------|-------------------------|--------------------------|
--------------------------|-------------------------|--------------------------|
--------------------------|-------------------------|--------------------------|
--9--9--9--9--7--7--7--5--|----5--5--5--7--7--7--7--|--9--9--9--9--5--5--5--2--|
--7--7--7--7--5--5--5--3--|----3--3--3--5--5--5--5--|--7--7--7--7--3--3--3--2--|
--------------------------|-------------------------|--------------------------|


                                                                               
-------------------------|--------------------------|-------------------------|
-------------------------|--------------------------|-------------------------|
-------------------------|--------------------------|-------------------------|
----2--2--2--2--2--2--2--|--9--9--9--9--7--7--7--5--|----5--5--5--7--7--7--7--|
----2--2--2--2--2--2--2--|--7--7--7--7--5--5--5--3--|----3--3--3--5--5--5--5--|
-------------------------|--------------------------|-------------------------|


                                                             
---------------------------|--------------------------------|
-----------------------17--|----17--17--17--17--17--17--17/-|
---------------------------|--------------------------------|
--9--9--9--9--7--7--x------|--------------------------------|
--7--7--7--7--5--5--x------|--------------------------------|
---------------------------|--------------------------------|


                                                      
--------------------------|--------------------------|
--------------------------|--------------------------|
--------------------------|--------------------------|
--------------------------|-----------------4--4--2--|
--------------------------|-----------------------2--|
----0--0--0--0-0-0--0--0--|--0--0--0--0--0-----------|


                                                         
--------------------------|-----------------------------|
--------------------------|-----------------------------|
--------------------------|-----------------------------|
--------------------------|--------------10--10--10--9--|
--------------------------|--------------------------7--|
----0--0--0--0-0-0--0--0--|--0--0--0--0--------------0--|


                                                                             
------------------------|-------------------------|-------------------------|
------------------------|-------------------------|-------------------------|
------------------------|-------------------------|-------------------------|
-------9-----9-------7--|-------7-----7--7-----5--|-------------------------|
-------7--------7----5--|----5--5--5--5--5--5--3--|----3--3--3--3--3--3--3--|
----0--0--0-------------|-------------------------|-------------------------|


                                                                               
------------------------|--------------------------|--------------------------|
------------------------|--------------------------|--------------------------|
-----------4----2-------|--------------------------|--------------------------|
-----------2----0-------|--------------------------|-----------------4--4--2--|
--3--3--3------------2--|--------------------------|-----------------------2--|
---------------------0--|----0--0--0--0-0-0--0--0--|--0--0--0--0--0-----------|


                                                         
--------------------------|-----------------------------|
--------------------------|-----------------------------|
--------------------------|-----------------------------|
--------------------------|--------------10--10--10--9--|
--------------------------|--------------------------7--|
----0--0--0--0-0-0--0--0--|--0--0--0--0--------------0--|


                                                                             
------------------------|-------------------------|-------------------------|
------------------------|-------------------------|-------------------------|
------------------------|-------------------------|-------------------------|
-------9-----9-------7--|-------7-----7--7-----5--|-------------------------|
-------7--------7----5--|----5--5--5--5--5--5--3--|----3--3--3--3--3--3--3--|
----0--0--0-------------|-------------------------|-------------------------|


                                                                
---------------------|----------------------|------------------|
---------------------|----------------------|------------------|
--------5t-----------|----------------------|------------------|
---------------------|--7-------10----------|------------------|
--3--3---------------|--7-------10----------|------------------|
---------------------|--5----5--8-----------|------------------|


                                                                         
----------------------|--------------------------|----------------------|
----------------------|--------------------------|----------------------|
----------------------|--------------------------|----------------------|
--10-------2----------|--------------------------|--7-------10----------|
--10-------2----------|--------------------------|--7-------10----------|
--8-----7--0----------|--0--0--0--0--0--0--0--0--|--5----5--8-----------|


                                                                       
------------------|-------------------------|-------------------------|
------------------|-------------------------|-------------------------|
------------------|-------------------------|-------------------------|
------------------|-------------------------|-------------------------|
------------------|--7--7--7--7--7----2--2--|--2--2--2----2--2--2--2--|
------------------|--0--0--0--0--0----0--0--|--0--0--0----0--0--0--0--|


                                                                                
-------------------|------------------|------------------|---------------------|
-------------------|------------------|------------------|---------------------|
-------------------|------------------|------------------|---------------------|
--2----------------|------------------|------------------|---------------------|
--2----------------|------------------|------------------|------2----2----2----|
--0----------------|------------------|------------------|------0----0----0----|


                                                          
-------------------|------------------|------------------|
-------------------|------------------|------------------|
-------------------|------------------|------------------|
--2----------------|------------------|------------------|
--2----------------|------------------|------------------|
--0----------------|------------------|------------------|


                                                                  
-----------------------|----------------------|------------------|
-----------------------|----------------------|------------------|
-----------------------|----------------------|------------------|
--------5----4----3----|-------------2--------|------------------|
--2--2--5----4----3----|--2----2--2--2--------|------------------|
--0--0-----------------|--0----0--0--0--------|------------------|


                                                                                
------------------|---------------------|-------------------|------------------|
------------------|---------------------|-------------------|------------------|
------------------|---------------------|-------------------|------------------|
------------------|---------------------|--2----------------|------------------|
------------------|------2----2----2----|--2----------------|------------------|
------------------|------0----0----0----|--0----------------|------------------|


                                                              
------------------|------------------|-----------------------|
------------------|------------------|-----------------------|
------------------|------------------|-----------------------|
------------------|------------------|-----------------------|
------------------|------------------|-----------------------|
------------------|------------------|--0--0--0--------0--0--|


                                                      
-----------------------------|-----------------------|
-----------------------------|-----------------------|
-----------------------------|-----------------------|
-----------------------------|-----------------------|
-----------------------------|-----------------------|
--0--0--0--0--0--0-0-0-0-0-0-|--0--0--0--------0--0--|


                                                      
-----------------------------|-----------------------|
-----------------------------|-----------------------|
-----------------------------|-----------------------|
-----------------------------|-----------------------|
-----------------------------|-----------------------|
--0--0--0--0--0--0-0-0-0-0-0-|--0--0--0--------0--0--|


                                                      
-----------------------------|-----------------------|
-----------------------------|-----------------------|
-----------------------------|-----------------------|
-----------------------------|-----------------------|
-----------------------------|-----------------------|
--0--0--0--0--0--0-0-0-0-0-0-|--0--0--0--------0--0--|


                                                      
-----------------------------|-----------------------|
-----------------------------|-----------------------|
-----------------------------|-----------------------|
-----------------------------|-----------------------|
-----------------------------|-----------------------|
--0--0--0--0--0--0-0-0-0-0-0-|--0--0--0--------0--0--|


                                                      
-----------------------------|-----------------------|
-----------------------------|-----------------------|
-----------------------------|-----------------------|
-----------------------------|-----------------------|
-----------------------------|-----------------------|
--0--0--0--0--0--0-0-0-0-0-0-|--0--0--0--------0--0--|


                                                                              
-----------------------------|----------------------|------------------------|
-----------------------------|----------------------|------------------------|
-----------------------------|----------------------|------------------------|
-----------------------------|----------------------|------------------------|
-----------------------------|--7--7------3--3------|--5--5------8--8--8--7--|
--0--0--0--0--0--0-0-0-0-0-0-|--7--7------3--3------|--5--5------8--8--8--7--|


                                                                   
----------------------|--------------------|----------------------|
----------------------|--------------------|----------------------|
----------------------|--------------------|----------------------|
----------------------|--------------------|--7-------10----------|
------3--3------5--5--|------8--8----------|--7-------10----------|
------3--3------5--5--|------8--8----------|--5----5--8-----------|


                                                                     
------------------|----------------------|--------------------------|
------------------|----------------------|--------------------------|
------------------|----------------------|--------------------------|
------------------|--10-------2----------|--------------------------|
------------------|--10-------2----------|--------------------------|
------------------|--8-----7--0----------|--0--0--0--0--0--0--0--0--|


                                                                 
----------------------|------------------|----------------------|
----------------------|------------------|----------------------|
----------------------|------------------|----------------------|
--7-------10----------|------------------|--10-------2----------|
--7-------10----------|------------------|--10-------2----------|
--5----5--8-----------|------------------|--8-----7--0----------|


                                                                     
--------------------------|----------------------|------------------|
--------------------------|----------------------|------------------|
--------------------------|----------------------|------------------|
--------------------------|--7-------10----------|------------------|
--------------------------|--7-------10----------|------------------|
--0--0--0--0--0--0--0--0--|--5----5--8-----------|------------------|


                                                                         
----------------------|--------------------------|----------------------|
----------------------|--------------------------|----------------------|
----------------------|--------------------------|----------------------|
--10-------2----------|--------------------------|--7-------10----------|
--10-------2----------|--------------------------|--7-------10----------|
--8-----7--0----------|--0--0--0--0--0--0--0--0--|--5----5--8-----------|


                                                                                
------------------|-------------------------|---------------------|------------|
------------------|-------------------------|---------------------|------------|
------------------|-------------------------|---------------------|-------5----|
------------------|-------------------------|---------------------|--2----5----|
------------------|--7--7--7--7--7----2--2--|--2--2--2------------|--0----3----|
------------------|--0--0--0--0--0----0--0--|--0--0--0------------|------------|


                                                                   
-------------------|--------------------|-------------------------|
-------------------|--------------------|-------------------------|
--7----------------|--------------------|-------------------------|
--7----------------|--5--------8--------|--7----------------------|
--5----------------|--5--------8--------|--5--------7--10--7--10--|
-------------------|--------------------|-------------------------|


                                                                        
------------------------------|-------------------|--------------------|
------------------------------|-------------------|--------------------|
------------------------------|--7----------------|--------------------|
--7--10--7--10----------------|--7----------------|--5--------8--------|
----------------7--10--7--10--|--5----------------|--5--------8--------|
------------------------------|-------------------|--------------------|


                                                              
------------------------------|------------------------------|
------------------------------|------------------------------|
------------------------------|------------------------------|
--7--10--7--10----------------|--7--10--7--10----------------|
----------------7--10--7--10--|----------------7--10--7--10--|
------------------------------|------------------------------|


                                                                        
-------------------|------------------|--------------------------------|
-------------------|------------------|--------------------------------|
-------------------|------------------|--10--14--10--14--9--12--9--12--|
--0----------------|------------------|--------------------------------|
-------------------|------------------|--------------------------------|
-------------------|------------------|--------------------------------|


                                                                  
--------------------------------|--------------------------------|
--10--13--10--13--8--13--8--13--|--------------------------------|
--------------------------------|--10--14--10--14--9--12--9--12--|
--------------------------------|--------------------------------|
--------------------------------|--------------------------------|
--------------------------------|--------------------------------|


                                                                  
--------------------------------|--------------------------------|
--10--13--10--13--8--13--8--13--|--------------------------------|
--------------------------------|--10--14--10--14--9--12--9--12--|
--------------------------------|--------------------------------|
--------------------------------|--------------------------------|
--------------------------------|--------------------------------|


                                                                  
--------------------------------|--------------------------------|
--10--13--10--13--8--13--8--13--|--------------------------------|
--------------------------------|--10--14--10--14--9--12--9--12--|
--------------------------------|--------------------------------|
--------------------------------|--------------------------------|
--------------------------------|--------------------------------|


                                                                    
--------------------------------|----------------------------------|
--10--13--10--13--8--13--8--13--|----------------------------------|
--------------------------------|--12--16--12--16--11--14--11--14--|
--------------------------------|----------------------------------|
--------------------------------|----------------------------------|
--------------------------------|----------------------------------|


                                                                      
----------------------------------|----------------------------------|
--12--15--12--15--10--15--10--15--|----------------------------------|
----------------------------------|--12--16--12--16--11--14--11--14--|
----------------------------------|----------------------------------|
----------------------------------|----------------------------------|
----------------------------------|----------------------------------|


                                                                      
----------------------------------|----------------------------------|
--12--15--12--15--10--15--10--15--|----------------------------------|
----------------------------------|--12--16--12--16--11--14--11--14--|
----------------------------------|----------------------------------|
----------------------------------|----------------------------------|
----------------------------------|----------------------------------|


                                                                      
----------------------------------|----------------------------------|
--12--15--12--15--10--15--10--15--|----------------------------------|
----------------------------------|--12--16--12--16--11--14--11--14--|
----------------------------------|----------------------------------|
----------------------------------|----------------------------------|
----------------------------------|----------------------------------|


                                                           
----------------------------------|-----------------------|
--12--15--12--15--10--15--10--15--|-----------------------|
----------------------------------|-----------------------|
----------------------------------|-----------------------|
----------------------------------|--2--2--2--------2--2--|
----------------------------------|--0--0--0--------0--0--|


                                                                     
-----------------------|----------------------|---------------------|
-----------------------|----------------------|---------------------|
-----------------------|----------------------|---------------------|
-----------------------|----------------------|---------------------|
--2--------2--2--2--2--|--2--2--2--------2----|--2--------2----2----|
--0--------0--0--0--0--|--0--0--0--------0----|--0--------0----0----|


                                                                        
-----------------------|---------------------|-------------------------|
-----------------------|---------------------|-------------------------|
-----------------------|---------------------|-------------------------|
-----------------------|---------------------|-------------------------|
--2--2--2--------2--2--|--2--------2----2----|--7--7--7--7--7----2--2--|
--0--0--0--------0--0--|--0--------0----0----|--0--0--0--0--0----0--0--|


                       
---------------------||
---------------------||
---------------------||
---------------------||
--2--2--2------------||
--0--0--0------------||


Comments