Children Of Bodom - Hate Me Chords & Tabs

 

Hate Me Chords & Tabs

Children Of Bodom Chords & Tabs

Version: 1 Type: Bass Tab 0 ratings
1 star 2 stars 3 stars 4 stars 5 stars
comments

Hate Me Bass Tab

   
Tuning: D G C F

F-----------------------------------------------------------------------|
C--------------------------------2------------2------------0--2--4--5---|
G--------------------------------------------------------2--------------|
D--0-0-0-----0-0-0-----0-0-0-------0---0--0-----0---0--0----------------|

F------------------------------------------------------------------|
C------------------------------------------------------------------|
G--7-7-7-7-5-5-5-3~-3-3-3-5-5-5-5-7-7-7-7-3-3-3-2~-2-2-2-2-2-2-2---|
D------------------------------------------------------------------|

F------------------------------------------------------------------|
C------------------------------------------------------------------|
G--7-7-7-7-5-5-5-3~-3-3-3-5-5-5-5-7-7-7-7-3-3-3-2~-2-2-2-0-2-3-5---|
D------------------------------------------------------------------|

F------------------------------------------------------------------|
C------------------------------------------------------------------|
G--7-7-7-7-5-5-5-3~-3-3-3-5-5-5-5-7-7-7-7-3-3-3-2~-2-2-2-2-2-2-2---|
D------------------------------------------------------------------|

F------------------------------------------------------------------|
C--------------------------------------------------7-7--7-7--------|
G--7-7-7-7-5-5-5-3~-3-3-3-5-5-5-5-7-7-7-7-5-5-x-x-0-0-0-0--------|
D------------------------------------------------------------------|

F-----------------------------------------------------------------------|
C---------------------------------------------------------10-10-10------|
G------------------------------4-4---------------------------------7----|
D--0-0-0-0-0-0-0-0-0-0-0-0-0-0-----2---0-0-0-0-0-0-0-0-0-----------0----|
                   |-3-|                          |-3-------------------|

F------------------------------------------------------------|
C--------9------------------------------------------2--0-----|
G----7-----7--5~-5-5-5-5-5-5-3~3-3-3-3-3-3-3-3-3-3-------0---|
D--0-0-0-----------------------------------------------------|

F-----------------------------------------------------------------------|
C---------------------------------------------------------10-10-10------|
G------------------------------4-4---------------------------------7----|
D--0-0-0-0-0-0-0-0-0-0-0-0-0-0-----2---0-0-0-0-0-0-0-0-0-----------0----|
                   |-3-|                          |-3-------------------|

F-----------------------------------------------------|
C--------9----------------------------------------5---|
G----7-----7--5~-5-5-5-5-5-5-3~3-3-3-3-3-3-3-3-3------|
D--0-0-0----------------------------------------------|

F---------------------------------------------------------------------|
C---------------------------------------------------------------------|
G-----------------------------------------------7-7-7-7-7-------------|
D--5-5-8~-----8-7-0~---0-0-0-0-0-0-0-0--5-5-8~------------0-0-0-0-0---|

F-----------------------------------------------------------------------|
C---------------------------------------------------------10-10-10------|
G------------------------------4-4---------------------------------7----|
D--0-0-0-0-0-0-0-0-0-0-0-0-0-0-----2---0-0-0-0-0-0-0-0-0-----------0----|
                   |-3-|                          |-3-------------------|

F------------------------------------------------------------|
C--------9------------------------------------------2--0-----|
G----7-----7--5~-5-5-5-5-5-5-3~3-3-3-3-3-3-3-3-3-3-------0---|
D--0-0-0-----------------------------------------------------|

F-----------------------------------------------------------------------|
C---------------------------------------------------------10-10-10------|
G------------------------------4-4---------------------------------7----|
D--0-0-0-0-0-0-0-0-0-0-0-0-0-0-----2---0-0-0-0-0-0-0-0-0-----------0----|
                   |-3-|                          |-3-------------------|

F-----------------------------------------------------|
C--------9----------------------------------------5---|
G----7-----7--5~-5-5-5-5-5-5-3~3-3-3-3-3-3-3-3-3------|
D--0-0-0----------------------------------------------|

F---------------------------------------------------------------------|
C---------------------------------------------------------------------|
G-----------------------------------------------7-7-7-7-7-------------|
D--5-5-8~-----8-7-0~---0-0-0-0-0-0-0-0--5-5-8~------------0-0-0-0-0---|


F--------------------------------------------------|
C----------------------------7-10-7-10-------------|
G--------------5---7-10-7-10-----------7-10-7-10---|
D--0-3-5---3-6-------------------------------------|

[ Tab from: http://www.guitartabs.cc/tabs/c/children_of_bodom/hate_me_btab.html ]
F----------------------------------------------|
C----------7-10-7-10-----------7-10-7-10---0---|
G-------5------------7-10-7-10-----------------|
D---3-6----------------------------------------|

F------------------------------------|
C------------------7-7-7-7-5-5-5-5---|
G--8-8-8-8-7-7-7-7-------------------|  4x
D------------------------------------|

F---------------------------------------|
C---------------------9-9-9-9-7-7-7-7---|
G10-10-10-10-9-9-9-9-------------------| 4x
D---------------------------------------|

F---------------------------------------------------------------|
C-------------------------2------------2-----------0--2--4--5---|
G------------9-----------------------------------2--------------|
D--0-0---0-0-----0-0-------0---0--0-----0---0--0----------------|


F------------------------------------------------------------------|
C------------------------------------------------------------------|
G--7-7-7-7-5-5-5-3~-3-3-3-5-5-5-5-7-7-7-7-3-3-3-2~-2-2-2-2-2-2-2---|
D------------------------------------------------------------------|

F------------------------------------------------------------------|
C------------------------------------------------------------------|
G--7-7-7-7-5-5-5-3~-3-3-3-5-5-5-5-7-7-7-7-3-3-3-2~-2-2-2-0-2-3-5---|
D------------------------------------------------------------------|

F-----------------------------------------------------------------------|
C---------------------------------------------------------10-10-10------|
G------------------------------4-4---------------------------------7----|
D--0-0-0-0-0-0-0-0-0-0-0-0-0-0-----2---0-0-0-0-0-0-0-0-0-----------0----|
                   |-3-|                          |-3-------------------|

F------------------------------------------------------------|
C--------9------------------------------------------2--0-----|
G----7-----7--5~-5-5-5-5-5-5-3~3-3-3-3-3-3-3-3-3-3-------0---|
D--0-0-0-----------------------------------------------------|

F-----------------------------------------------------------------------|
C---------------------------------------------------------10-10-10------|
G------------------------------4-4---------------------------------7----|
D--0-0-0-0-0-0-0-0-0-0-0-0-0-0-----2---0-0-0-0-0-0-0-0-0-----------0----|
                   |-3-|                          |-3-------------------|

F-----------------------------------------------------|
C--------9----------------------------------------5---|
G----7-----7--5~-5-5-5-5-5-5-3~3-3-3-3-3-3-3-3-3------|
D--0-0-0----------------------------------------------|

F---------------------------------------------------------------------|
C---------------------------------------------------------------------|
G-----------------------------------------------7-7-7-7-7-------------|
D--5-5-8~-----8-7-0~---0-0-0-0-0-0-0-0--5-5-8~------------0-0-0-0-0---|

F-----------------------------------------------------------------------|
C-----------------------------------------------------------------------|
G-----------------------------------------------------------------------| 6x
D--00-0---0-0-0-0~---00-0--0-0-0-0-0-0-0-0-0-0-0-0-0--------------------|
                             |-3-||-3-----------------------------------|

F---------------------------------------------------------------------|
C---------------------------------------------------------------------|
G---------------------------------------------------------------------|
D--7-7---3-3---5-5---8-8-8-7---3-3---5-5---8-8------------------------|

F----------------------------------------|
C----------------------------------------|
G----------------------------------------| 3x
D--5-5-8~-----8-7-0~---0-0-0-0-0-0-0-0---|

F---------------------------------|
C---------------------------------|
G-----------7-7-7-7-7-------------|
D--5-5-8~-------------0-0-0-0-0---|

F--------------------------------------------------|
C----------------------------7-10-7-10-------------|
G--------------5--7-10-7-10------------7-10-7-10---|
D--0-3-5---3-6-------------------------------------|


F----------------------------------------------|
C----------7-10-7-10-----------7-10-7-10---0---|
G-------5------------7-10-7-10-----------------|
D---3-6----------------------------------------|


F------------------------------------|
C------------------7-7-7-7-5-5-5-5---|
G--8-8-8-8-7-7-7-7-------------------|  4x
D------------------------------------|

F---------------------------------------|
C---------------------9-9-9-9-7-7-7-7---|
G10-10-10-10-9-9-9-9-------------------| 4x
D---------------------------------------|

F-------------------------------------|
C-------------------------------------|
G-------------------------------------|
D--0-0-0---0-0-0---0-0-0-0-0-0-0---0-|

F-------------------------------------------------------|
C-------------------------------------------------------|
G---------------------------------7-7-7-7-7-------------|
D-0---0-0---0-0-0---0-0-0---0-0-------------0-0-0-0-0---|
Comments