Children Of Bodom - Hate Crew Death Roll Chords & Tabs

 

Hate Crew Death Roll Chords & Tabs

Children Of Bodom Chords & Tabs

Version: 1 Type: Tab 0 ratings
1 star 2 stars 3 stars 4 stars 5 stars
comments

Hate Crew Death Roll Tab

   
Hey my name is Tim and I am a fan of Children of bodom , I tried to tab out the title 
from the HCDR cd by COB I think it is 90% accurate

Tuning:
Whole step down -> D G C F A D

Keyboard intro (4 x)
e|-19-15---18-14---17-13---16-12---------------------------------------------|
B|---------------------------------------------------------------------------|
G|---------------------------------------------------------------------------|
D|---------------------------------------------------------------------------|
A|---------------------------------------------------------------------------|
E|---------------------------------------------------------------------------|

Riff 1 (no vocals) (2x)
e|----------------------------------------------------------------------------|
B|----------------------------------------------------------------------------|
G|----------------------------------------------------------------------------|
D|-8/9--8-9----------8/9--8/9----------8/9--8/9-------------------------------|
A|-6/7--6/7----------6/7--6/7----------6/7--6/7----------------7--10----------|
E|-----------0-0-0-0-----------0-0-0-0-----------0-0-0-0-------5--8-----------|
[ Tab from: http://www.guitartabs.cc/tabs/c/children_of_bodom/hate_crew_death_roll_tab.html ]
e|-----------------------------------------------------------------------|
B|-----------------------------------------------------------------------|
G|-------------------------------------------------9--7------------------|
D|-8/9--8-9----------8/9--8/9----------8/9--8/9----7--5------------------|
A|-6/7--6/7----------6/7--6/7----------6/7--6/7--------------------------|
E|-----------0-0-0-0-----------0-0-0-0-----------0-0-0-0-------5--8------|

Riff 2 with vocals

e|----------------------------------------------------------------------------|
B|----------------------------------------------------------------------------|
G|----------------------------------------------------------------------------|
D|-8/9--8-9----------8/9--8/9----------8/9--8/9-------------------------------|
A|-6/7--6/7----------6/7--6/7----------6/7--6/7----------------7--10----------|
E|-----------0-0-0-0-----------0-0-0-0-----------0-0-0-0-------5--8-----------|

e|----------------------------------------------------------------------------|
B|----------------------------------------------------------------------------|
G|----------------------------------------------------------------------------|
D|-8/9--8-9----------8/9--8/9----------8/9--8/9-------------------------------|
A|-6/7--6/7----------6/7--6/7----------6/7--6/7--2-2-2-2----------------------|
E|-----------0-0-0-0-----------0-0-0-0-----------0-0-0-0----------------------|
Comments