Children Of Bodom - Follow The Reaper Chords & Tabs

 

Follow The Reaper Chords & Tabs

Children Of Bodom Chords & Tabs

Version: 3 Type: Tab 0 ratings
1 star 2 stars 3 stars 4 stars 5 stars
comments

Follow The Reaper Tab

Children of Bodom
Follow the Reaper 
Follow the Reaper

Tune down one whole step
Solo
D:------------------------------------|--------------------------17-|
A:------15----------15--------(15)b17-|-17~----------15-17-19\20----|
F:-(14)b16-----(14)b16-r14--12--------|-----14-16-17----------------|
G:------------------------------------|-----------------------------|
C:------------------------------------|-----------------------------|
D:------------------------------------|-----------------------------|

|-19---19-19----------17--|-201917201917-----------------|
|------------20-17-20-----|-------------201917201917-----|
|-------------------------|-------------------------1917-|
|-------------------------|------------------------------|
|-------------------------|------------------------------|
|-------------------------|------------------------------|
[ Tab from: http://www.guitartabs.cc/tabs/c/children_of_bodom/follow_the_reaper_tab_ver_3.html ]
|-----19---------22s24--19-|-2219--1922192219--19221922191919-|
|---17----15s17------------|-----23----------23---------------|
|-16-----------------------|----------------------------------|
|--------------------------|----------------------------------|
|--------------------------|----------------------------------|
|--------------------------|----------------------------------|

|-221819221918---------------------|----------------------------------|
|-------------20191719201917-------|-----------------------------1719-|
|---------------------------191716-|-171917161716----------161719-----|
|----------------------------------|-------------1917161719-----------|
|----------------------------------|----------------------------------|
|----------------------------------|----------------------------------|

|-------0-----------|-----------------------------------|
|-(22)b24--r22-b24--|-------------------------------12--|
|-------------------|-(14)b16--r14-12-14------12-14-----|
|-------------------|-------------------14--------------|
|-------------------|-----------------------------------|
|-------------------|-----------------------------------|

|--------------------------------(17)b19---|
|----------------(15)b17-r15--12-----------|
|-(14)b16-r14--12--------------------------|
|------------------------------------------|
|------------------------------------------|
|------------------------------------------|
Comments