Children Of Bodom - Downfall Chords & Tabs

 

Downfall Chords & Tabs

Children Of Bodom Chords & Tabs

Version: 6 Type: Tab 0 ratings
1 star 2 stars 3 stars 4 stars 5 stars
comments

Downfall Tab

Artist: Children Of Bodom
Song: Downfall
Album: Hatebreeder
Tabbed by: The Soulthief

I noticed there didn't where any rythme guitar tabs of this song.
So I made one :)
I tried to make it as accurate as possible.
Have fun with it.

Tune D (all stings 1 step down)

Intro
|--------------------------------------|  
|--------------------------------------|  
|--------------------------------------|  
|--------------------------------------|  
|--3----3----2--5----7----7--3----3-3--|  
|--1----1----0--3----5----5--1----1-1--| 
        .    .  .         .         . 
|-------------------------------------------|
|-------------------------------------------|
|o-----------------------------------------o|
|o------------------------1010101010101010-o|
|---77777777....--------7--8-8-8-8-8-8-8-8--|
|---55555555....-7-8-10---------------------|

|----------------------------------|
|----------------------------------|
|----------------------------------|
|------------------5---------5--6--|
|--5-3----2--3--7--3---3--7--3--4--|
|--3-1----0--1--5------1--5--------|
     .     
Verse
|----------------------------------------------|
|--88888888-1010101010101010-------------------|
|o-99999999-1010101010101010--9-9-9-9-9-9-9-9-o|
|o---------------------------1010101010101010-o|
|----------------------------------------------|
|----------------------------------------------|

|--------------------------------------------------------------|
|--888888888888888888888888-1010101010101010-------------------|
|--999999999999999999999999-1010101010101010--9-9-9-9-9-9-9-9--|
|--------------------------------------------1010101010101010--|
|--------------------------------------------------------------|
|--------------------------------------------------------------|

|----------------------||--------12-14-12h14p12------------|
|----------------------||--14-15----------------15-12-14\--|
|o--------------------o||----------------------------------|
|o--------------------o||----------------------------------|
|--7-8-5-7----8-3-5-8--||----------------------------------|
|--5-6-3-5----6-1-3-6--||----------------------------------|

Interlude
|-------------------||----------------------------------------|
|-------------------||----------------------------------------|
|-------------------||--------------------------9----9--10----|
|----5---7---5---7--||----------9----9-10--9-10---10----------|
|--7-3-5-5-7-3-5-5--||--9-10-12---12--------------------------|
|--5---3---5---3----||----------------------------------------|
[ Tab from: http://www.guitartabs.cc/tabs/c/children_of_bodom/downfall_tab_ver_6.html ]
              Chorus
|-----------||-------------------------------|
|-----------||-------------------------------|
|-----------||o-----------------------------o|
|-----------||o-2---2-------2---2---2-------o|
|-----------||--0-2-0-2-3-5-0-2-0-2-0-2-3-5--|
|-1111-1111-||----0---0-1-3---0---0---0-1-3--|
  .... ....
|-------------------------------------------------|
|-------------------------------------------------|
|o-----------------------------------------------o|
|o---------7-5-7-8-7-5-7---------8-7-8-10-8-7-8--o|
|--7-8-5-7---------------8-3-5-8------------------|
|--5-6-3-5---------------6-1-3-6------------------|
           . . . . . . .         . . . .  . . .

|---------------------------------------------------------|
|---------------------------------------------------------|
|--------------------------------------------------0-2-4--|
|----------------------------5---------------0-2----------|
|--7--5-7--3--33--5-3--2-3-7-3---------0-2-3--------------|
|--5--3-5--1--11--3-1--0-1-5---1-0-1-3--------------------|

Play Verse

Bridge
|-----------------------------------------|
|-----------------------------------------|
|-----------------------------------------|
|--1010-7------5-------------7----9-------|
|--8-8--5------3-5-----5-----5----7-5--7--|
|----------3-3---3-3-3-3-3-3--------3--5--|
           . .     . .   . .

Solo
|----------------------------------------------------------
|----------------------------------------------------------
|----------------------------------------------------------
|--9-9-9-5-7-7-9-9-9-5-7-7-9-9-9--8-11-14-11--7-9-7-9-7-5--
|--7-7-7-3-5-5-7-7-7-3-5-5-7-7-7--6--9-12--9--5-7-5-7-5-3--
|----------------------------------------------------------

-------------------------------------------------------------------|
---------------------7-8-10-12--12---12--12------------------------|
---------------------6-7-9--11--11---11--11------------------------|
--9-9-9-5-7-7--5-7-9-4-5-7---9---9----9---9---------5-4-2-0-2-7-9--|
--7-7-7-3-5-5--3-5-7------------------------3-2-0---5-4-2-0-2-5-7--|
--------------------------------------------------3----------------|

|------------------------------------------------|
|------------------------------------------5-----|
|--------------------0-2-4-----------------4-----|
|--9-----------1-2-4-------7-9--9----4--4--2-----|
|--7--7--0-1-2-------------5-7--7-7--2--2-----7--|
|-----5---------------------------5-----------5--|

Play Interlude

|---------------------------------------------|
|---------------------------------------------|
|--------------------------9----9--10--12-14--|
|----------9----9-10--9-10---10---------------|
|--9-10-12---12-------------------------------|
|---------------------------------------------|

Chorus
|-------------------------------------------------------------------|
|-------------------------------------------------------------------|
|-------------------------------------------------------------------|
|--2---2-------2---2---2-------2---4---4-------4---4---4-------4----|
|--0-2-0-2-3-5-0-2-0-2-0-2-3-5-0-2-2-4-2-4-5-7-2-4-2-4-2-4-5-7-2-4--|
|----0---0-1-3---0---0---0-1-3---0---2---2-3-5---2---2---2-3-5---2--|

|-------------------------------------------||------------|
|-------------------------------------------||------------|
|------------------------------11----11-12--||------------|
|-----------10----10-12--10-12----12--------||-------4-4--|
|--10-12-14----14---------------------------||--2-2--2-2--|
|-------------------------------------------||------------|
                                                . .

|o---| 
|o---| Repeat part

...  Palm Muting
h  Hammer on
p  Pull off
\  Slide down

Enjoy!
Comments