Children Of Bodom - Deadnight Warrior Chords & Tabs

 

Deadnight Warrior Chords & Tabs

Children Of Bodom Chords & Tabs

Version: 1 Type: Tab 0 ratings
1 star 2 stars 3 stars 4 stars 5 stars
comments

Deadnight Warrior Tab

   
#----------------------------------PLEASE NOTE---------------------------------#
#This file is the author's own work and represents their interpretation of the #
#song. You may only use this file for private study, scholarship, or research. #
#------------------------------------------------------------------------------#

DEADNIGHT WARRIOR

from: CHILDREN OF BODOM
      SOMETHING WILD

Music and lyrics by Alexi Laiho
Tabbed by Juha-Matti Kallinen
More tabs at http://sivut.koti.tpo.fi/akallinen/

This is my interpretation of the song.
If you have any corrections, suggestions or questions,
mail me to juha-matti.kallinen@koti.tpo.fi


-------------------------------------------------------

Tune down 1 1/2 step
ca. 210 bpm

4/4 time

  (Drums)
|--------------|---------------|------------------------|
|--------------|---------------|--------8-----7--7----8-|
|--------------|---------7---9-|*-------9-----8--8----9-|
|--------------|---------7---9-|*-------9-----8--8----9-|
|--------------|---------5---7-|----7-7-7-----6--6----7-|
|--------------|---------------|------------------------|

                                              1.2.3.
|------------------|------------------------|--------------------|
|------------------|--------8-----7--7----8-|----8---------------|
|------------7---9-|--------9-----8--8----9-|------9----------9-*|
|------------7---9-|--------9-----8--8----9-|--------8~-------9-*|
|----------0-5---7-|----7-7-7-----6--6----7-|-----------------7--|
|----0-2-3---------|------------------------|--------------------|

  4.         E5
|---/18\---|-------------------------|------------------------|
|----------|-------------------------|------------------------|
|----------|-------------------------|----16----------16-9/16-|
|----------|----------14-17p14----14-|-17----17-14-17---------|
|----------|-------14----------17----|------------------------|
|----------|-12-15-------------------|------------------------|


|-------------------19p15-|-t24p19p15----------------|
|-17-------20p17----------|-----------17-------------|
|----16----------16-------|--------------16----------|
|-------17----------------|-----------------17p14----|
|-------------------------|-----------------------17-|
|-------------------------|--------------------------|

  C5
|----------------------------|-------------------------------|
|----------------------------|-------------------------------|
|----------------------------|-------------------------------|
|-------------17-16-17-14-17-|-12-17----17----------12-14-16-|
|-15h17p15-14----------------|-------15----12-14-15----------|
|----------------------------|-------------------------------|


|-------------------------------------|-------------17-19-20-19-17-------|
|-------------------------------------|-15-17-19-20----------------20-19-|
|----------------14-16-17-16-14-16-17-|----------------------------------|
|-17-16-14-16-17----------------------|----------------------------------|
|-------------------------------------|----------------------------------|
|-------------------------------------|----------------------------------|


|------------
|-17-\-------
|------------
|------------
|------------
|------------
|
|-------------------------------|--------------------------------|
|-------------------------------|--------------------------------|
|-------------------------------|------------------------7-------|
|-10\9-----------10\9-----------|-10\9-----------5-------7-------|
|--7--------------7-------------|--7-------------5-------5-------|
|--------0-0-0-0--------0-0-0-0-|--------0-0-0-0-3---------------|


|-------------------------------|--------------------------------|
|-------------------------------|--------------------------------|
|-------------------------------|---------7-------9--------------|
|-10\9-----------10\9-----------|-5-------7-------9--------------|
|--7--------------7-------------|-5-------5-------7--------------|
|--------0-0-0-0--------0-0-0-0-|-3------------------------------|

6/4 time
|------------------------------------|-------------------------------------|
|-------------------8-----------7----|-------------------8-----------4-----|
|*------------------9-----------7----|-------------------9-----------5----*|
|*------------------9-----------7----|-------------------9-----------5----*|
|-------------------7-----------5----|-------------------7-----------3-----|
|-0-0-0-0-0-0-0-0-0-------0-0-0------|-0-0-0-0-0-0-0-0-0-------0-0-0-------|

One empty 1/4 time bar

4/4 time Riff A
|------------------------|------------------------|
|-------------------8----|-------------------7----|
|*------------------9----|-------------------7----|
|*------------------9----|-------------------7----|
|-------------------7----|-------------------5----|
|-0-0-0-0-0-0-0-0-0------|-0-0-0-0-0-0-0-0-0------|


|------------------------|-------------------5----|
|-------------------8----|-------4-----------5----|
|-------------------9----|-------5-----------5---*|
|-------------------9----|-------5-----------7---*|
|-------------------7----|-------3-----------7----|
|-0-0-0-0-0-0-0-0-0------|-0-0-0-------0-0-0------|

Riff B
|-------------------------|-------------------------|
|-------------------------|-------------------------|
|-------------------------|-------------------------|
|-------------------------|-------------------------|
|-------------------------|-------------------------|
|-6-6-6-6-6-6-6-6-6-6-6-6-|-6-6-6-6-6-6-6-6-6-6-6-6-|


|-------------------------|-------------------------|
|-------------------------|-------------------------|
|-------------------------|-------------------------|
|-------------------------|-------------------------|
|-7-7-7-7-7-7-7-7-7-7-7-7-|-7-7-7-7-7-7-7-7-7-7-7-7-|
|-------------------------|-------------------------|


|-------------------------|-------------------------------------|
|-------------------------|-------------------------------------|
|-------------------------|-------------------------------------|
|-------------------------|-------------------------------------|
|-8-8-8-8-8-8-8-8-8-8-8-8-|-10-10-10-10-10-10-10-10-10-10-10-10-|
|-------------------------|-------------------------------------|


|-------------------------|-------------------------------|
|-------------------------|-------------------------------|
|-------------------------|-------------------------------|
|-7-7-7-7-7-7-7-7-7-9-9-9-|-10-10-10-10-10-10-9-9-9-9-9-9-|
|-------------------------|-------------------------------|
|-------------------------|-------------------------------|


|--------------------------|------------------------------------|
|--------------------------|------------------------------------|
|--------------------------|------------------------------------|
|-------10-----9-----7-----|----------12-------10-------9-------|
|-8-8-8----8-8---8-8---8-8-|-10-10-10----10-10----10-10---10-10-|
|--------------------------|------------------------------------|


|----------|-----------|------------|----|----|----|----|
|----------|-----------|------------|----|----|----|----|
|----------|---------2-|-2--------2-|--*/-/---|--*/-/---|
|-7\-------|---------2-|-2--------2-|--/-/*---|--/-/*---|
|----------|---------0-|-0--------0-|----|----|----|----|
|----------|-----------|------------|----|----|----|----|

play 4 times
|------------------|------------------|
|------------------|------------------|
|*-----------------|-----------------*|
|*-2-2-2-2-2-2-2-2-|-3-3-3-3-5-5-5-5-*|
|--0-0-0-0-0-0-0-0-|-3-3-3-3-2-2-2-2--|
|------------------|------------------|

Riff C              1.2.3.                 4.
|------------------|----------------------|  --------------------|
|------------------|----------------------|  --------------------|
|*-2---2-----2---2-|-----10---------12---*|  --5--------7--------|
|*-2---2-----2---2-|-----10---------12---*|  --5--------7--------|
|--0-0-0-0-0-0-0-0-|-8-8-8--8-10-10-10-10-|  --3--------5--------|
|------------------|----------------------|  --------------------|


|---------------------|--------------------|
|--8------------------|-----------7--7--7--|
|--9------------------|-----------8--8--8--|
|--9------------------|-----------8--8--8--|
|--7---77777777777777-|-77777777--6--6--6--|
|---------------------|--------------------|

                     2/4
|------------------|-----------|
|------------------|-----------|
|------------------|-------7---|
|------------------|--5----7---|
|-7777777777777777-|--5----5---|
|------------------|--3--------|

4/4
  E5         G5          D5              E5
|----------------------|---------------------------|
|------------------12--|-10-h12p10-----------------|
|*(9)---9-11-12--------|-----------12-11-12-9-9----|
|*---------------------|------------------------12-|
|----------------------|---------------------------|
|----------------------|---------------------------|

  1.2.3.   C5          D5         E5
|--------------------|--------------------|
|--------------------|--------------------|
|-9---9-11-12---12---|-11-9-------9------*|
|--------------------|------12-----------*|
|--------------------|--------------------|
|--------------------|--------------------|

4.                     2/4
..C5       G5          D5
|--------------------|------------|
|--------------------|------------|
|-9---9-11-12---12---|-11-9-------|
|--------------------|------12----|
|--------------------|------------|
|--------------------|------------|

4/4
  E5 dive w/bar
|-a7-\---------------|
|--------------------|
|--------------------|
|--------------------|
|--------------------|
|--------------------|


Riff A 2 times

Solo                                    harmonies third below
|-------------------15h19p15----------|--------------------------------|
|----------------17----------17-------|-15h17p15----15-----------------|
|-------------16----------------16----|----------17----17-16-----------|
|----------17----------------------17-|--------------------------17----|
|----14-19----------------------------|--------------------------------|
|-15----------------------------------|--------------------------------|


|-------------------------------------|-19-------19-20-19-22---------19|
|-------------------17-15-13-20-19-17-|--------------------------------|
|----------16-14-12-------------------|--------------------------------|
|-17-16-14----------------------------|--------------------------------|
|-------------------------------------|--------------------------------|
|-------------------------------------|--------------------------------|


|-24p19----------18-19p15----------15-|-20p17----------------------------17-|
|-------20----20----------17----17----|-------19----------------------19----|
|----------21----------------16-------|----------20p17----------17h20-------|
|-------------------------------------|----------------19-16h19-------------|
|-------------------------------------|-------------------------------------|
|-------------------------------------|-------------------------------------|


|-19p15----------------------------15-|-17p14----------------------------14-|
|-------17----------------------17----|-------16----------------------16----|
|----------16----------------16-------|----------17p14----------14h17-------|
|-------------17----------17----------|----------------16-13h16-------------|
|----------------19-14h19-------------|-------------------------------------|
|-------------------------------------|-------------------------------------|
[ Tab from: http://www.guitartabs.cc/tabs/c/children_of_bodom/deadnight_warrior_tab.html ]
w/Riff B                                                       raise & dive
|-13----------|---------13b(14)---t16(17)-p(13)r12-|----------|-/a5\--------|
|-------------|------------------------------------|----------|-------------|
|-------------|------------------------------------|----------|-------------|
|-------------|------------------------------------|----------|-------------|
|-------------|------------------------------------|----------|-------------|
|-------------|------------------------------------|----------|-------------|

4 bars

4 times
|--------------|-------------|
|--------------|-------------|
|*-2-----------|------------*|
|*-2-----------|-3-----5----*|
|--0-----------|-3-----5-----|
|--------------|-1-----3-----|

Riff C 4 times

  effects w/bar
|------------|------------|
|------------|------------|
|*-----------|-8---------*|
|*-7---------|-7---------*|
|--6---------|------------|
|------------|------------|


|-------------------|
|-------------------|
|--------7--9----\--|
|--------7--9----\--|
|--------5--7----\--|
|--X--X-------------|



===================================================================================
                               2nd version
===================================================================================




__________________________________________________________________________
|   The following is the author's own interpretation of the song, to be  |
|                  used for private use and studying                     |
¯¯¯¯¯¯¯¯¯¯¯¯¯¯¯¯¯¯¯¯¯¯¯¯¯¯¯¯¯¯¯¯¯¯¯¯¯¯¯¯¯¯¯¯¯¯¯¯¯¯¯¯¯¯¯¯¯¯¯¯¯¯¯¯¯¯¯¯¯¯¯¯¯¯

	      'DEADNIGHT WARRIOR' BY CHILDREN OF BODOM
		      FROM "SOMETHING WILD" CD
		      COPYRIGHT 1997 SPINEFARM

		Transcribed by Janne Posti
		E-mail address: baq039r@tninet.se

		 	  Version 1.0 - October 1998

----------------------------------------------------------------------------
NOTES:
Tuning: Tune down one whole step (1:D, 2:G, 3:C, 4:F, 5:A, 6:D)

Timing: Listen to music for actual timing...

Notation: When two guitars are listed play all guitars simultaneously.
          ~ = vibrate 	        \ = slide down
          h = hammer-on         / = slide up
          p = pull-off          × = pick scrape
	  t = tapping		. = palm mute

WARNING!!: For example 11 is 11, not two 1's.

----------------------------------------------------------------------------

Hi ho, here's my bad effort to transcribe the masterpiece "Deadnight
Warrior". I only tabbed the main guitar, as I was too lazy writing down
rhythm stuff. I'll do that later. Anyways please send me your comments...
and corrections, as this piece is not too correct...

RIFF A
|-----|---------------------------------------------------------------------
|-----|---------------------------------------------------------------------
|-7-9-|-9-88-9---------7-9-9-88-9-------------------------------------------
|-7-9-|-9-88-9---------7-9-9-88-9--5-------2--------------------------------
|-5-7-|-7----7-------0-5-7-7----7----7-----2--------------------------------
|-----|--------0-2-3-.-----------------6~--0--------------------------------
               . . .
Play 4 times


SOLO 1
|-0/12\-|-----------------------------------15----19--24--------------------
|-------|---------------12------------17------17----20--24------------------
|-------|-------12----12--12------14----16------16--------242321------------
|-------|-14------14--------14--14--17----17--------------------242221------
|-------|---14------14--------14--------------------------------------------
|-------|-----15------------------------------------------------------------

|---------------------------------------------------------------------------
|---------------------------------------------------------------------------
|----------121112912--12--12------7h9h11-----------------17p16p14-16h17h19--
|-10p9p7h10---------12--10--7h9h10------17p16p14-16h17h19-------------------
|---------------------------------------------------------------------------
|---------------------------------------------------------------------------

|---------17h19h20-22p20p19-------------------------------------------------
|-17h19h20-----------------22p20p19\14-15~----------------------------------
|---------------------------------------------------------------------------
|---------------------------------------------------------------------------
|---------------------------------------------------------------------------
|---------------------------------------------------------------------------

RIFF B
|---------------------------------------------------------------------------
|---------------------------------------------------------------------------
|---------------------------------7-----------------------------------------
|-10\9-9999-10\9-9999-10\9-9999-5-7-10\9-9999-10\9-9999---------------------
|-7----7777-7----7777-7----7777-5-5-7----7777-7----7777-5-0-2---------------
|------....------....------....-3--------....------....-3-2-0---------------

RIFF Ca
|---------------------------------------------------------------------------
|---------------------------------------------------------------------------
|---------------------------------------------------------------------------
|-----------5-----4-----------7-----2---------------------------------------
|-2---------7-----5-2---------5-----3---------------------------------------
|-0--000000---000---0--000000---000-----------------------------------------
     ......   ...      ......   ...
Play 2 times


RIFF Cb
|---------------------------------------------------------------------------
|---------------------------------------------------------------------------
|---------------------------------------------------------------------------
|-----------7-----------4-----------5-----2-----2---------------------------
|-2---------5-----------5-----------7-----3-----0---------------------------
|-0--000000---000000000---000000000---000---000-----------------------------
     ......   .........   .........   ...   ...
Play 2 times


RIFF D
|---------------------------------------------------------------------------
|---------------------------------------------------------------------------
|---------------------------------------------------------------------------
|-------------------------222222222222222222222222-10-10101010-10--10-------
|-111111111111111111111111........................----.-.-.-.---------------
|-........................--------------------------------------------------

|---------------------------------------------------------------------------
|--------------------------------10~----------------------------------------
|-----------------999999999121212-------9-----------------------------------
|-9-9999-9--121212..........-.-.-----------12-10-9--10-9--------------------
|---....----.-.-.-----------------------------------------------------------
|---------------------------------------------------------------------------

RIFF E
|-----|----------------------------------------------------------------------|
|-----|--Last-time-end-with--------------------------------------------------|
|-22--|----------------------------------------------------------------------|
|-22--|----------------------------------------------------------------------|
|-00--|---×\-----------------------------------------------------------------|
|-..--|---×\\----------------------------------------------------------------|
Play 4 times

RIFF Fa
GUITAR ONE
|---------------------------------------------------------------------------
|---------------------------------------------------------------------------
|---------------------------------------------------------------------------
|---------------------------------------------------------------------------
|-0-0-0-0-0-0-0-0-3-3-3-3-2-2-2-2-------------------------------------------
|-.-.-.-.-.-.-.-.-.-.-.-.-.-.-.-.-------------------------------------------

GUITAR TWO
|---------------------------------------------------------------------------
|---------------------------------------------------------------------------
|---------------------------------------------------------------------------
|-2-2-2-2-2-2-2-2-3-3-3-3-5-5-5-5-------------------------------------------
|-.-.-.-.-.-.-.-.-.-.-.-.-.-.-.-.-------------------------------------------
|---------------------------------------------------------------------------
Play 4 times

Riff Fb
|---------------------------------------------------------------------------
|---------------------------------------------------------------------------
|---------------------------------------------------------------------------
|-22-2-22-2-2-2-33-3-3-55-5-5-----------------------------------------------
|-00-0-00-0-0-0-33-3-3-22-2-2-----------------------------------------------
|-..---..---.---..---.-..---.-----------------------------------------------
Play 4 times

RIFF G
|---------------------------------------------------------------------------
|---------------------------------------------------------------------------
|-9------------------8-8-8-9------------------------------------------------
|-9------------------8-8-8-9------------------------------------------------
|-7--7-tremolo-pick--6-6-6-7-7-tr.pick-5--0--2------------------------------
|----.-----------------------.---------3--2--0------------------------------

RIFF H
|---------------------------------------------------------------------------
|---------12-10h12p10-------------------------------------------------------
|-9-11-12-------------12-11-12-9-9----9-9-11-12--12--11-9----9--------------
|----------------------------------12---------------------12----------------
|---------------------------------------------------------------------------
|---------------------------------------------------------------------------
Play 4 times

Play RIFF Cb 2 times

SOLO 2
|---------------------------------------------------------------------------
|---------------20t24p20----------------------------------------------------
|-------------16--------19h21p19-17h19p17-16h17p16--------------------------
|--------14h17------------------------------------19h21p19-17h19p17-16h17p16
|------14-------------------------------------------------------------------
|-12h15---------------------------------------------------------------------

|-------------------------19p17p15-19--19h20p19-22~-------------------------
|-----------------19p17p15--------------------------------------------------
|---------17p16p14----------------------------------------------------------
|-17p16p14------------------------------------------------------------------
|---------------------------------------------------------------------------
|---------------------------------------------------------------------------

Then the sweep thing, which I lost interest in :)
It starts with something like this:

|-24p19--------19p15------15------------------------------------------------
|------20----20-----17--17--------------------------------------------------
|----------21---------16----------------------------------------------------
|--------21-----------------------------------------------------------------
|---------------------------------------------------------------------------
|---------------------------------------------------------------------------

Play RIFF D
Play RIFF E, and end with:

|-//-(with palm)--|
|-//--------------|
|-----------------|
|-----------------|
|-----------------|
|----×\-----------|
       \

Play RIFF Fb 4 times

Outro Riff I lost interest in. Some whammin' & jammin' on Ab, high and
low...

End song with:

|-----------|
|-----------|
|-9---7-9\--|
|-9---7-9\--|
|-7---5-7\--|
|---0-------|
    .

There are some artificially harmonized high G's and D's every now and then,
I guess you can figure out those by yourself.

Any corrections or stuff like that: feel free to send them to me, they are
welcome!

Janne Posti
baq039r@tninet.se
Comments