Children Of Bodom - Chokehold Chords & Tabs

 

Chokehold Chords & Tabs

Children Of Bodom Chords & Tabs

Version: 2 Type: Tab 0 ratings
1 star 2 stars 3 stars 4 stars 5 stars
comments

Chokehold Tab

Ok, this is the whole solo from chokehold (cocked n' loaded) tune down one while step, use a whammy and wah


|--3/10--10--10--10-----------------------------------------------|
|--------------------8-----10--10--10--10--8--7-----------7-----5-|
|-----------------------7------------------------------5-----5----|
|---------------------------------------------------5-------------|
|------------------------------------------------5----------------|
|-----------------------------------------------------------------|
      whammy
|--5--(5)\-------------------------------------------------12---|
|------------------8--7---------8--7------------7--8--7/8-------|
|---------------5------------7---------9--7--9------------------|
|------------5------------7-------------------------------------|
|---------------------------------------------------------------|
|---------------------------------------------------------------|
[ Tab from: http://www.guitartabs.cc/tabs/c/children_of_bodom/chokehold_tab_ver_2.html ]
|--------14---------15----15--14--12--14---14--12------------15--|
|--8/10------10/12---------------------------------15--(15)------|
|----------------------------------------------------------------|
|----------------------------------------------------------------|
|----------------------------------------------------------------|
|----------------------------------------------------------------|
          vibrato whammy
|--(15)----------22---19--19--19--19--22--19--17--17--17--17------|
|--------15/22---22-------------------------------------------20--|
|-----------------------------------------------------------------|
|-----------------------------------------------------------------|
|-----------------------------------------------------------------|
|-----------------------------------------------------------------|

|---------0--17--(17)--(17)--|
|--19\17--0--17--(17)--(17)--|
|------------17--(17)--(17)--|
|----------------------------|
|----------------------------|
|----------------------------|

and thats the whole thing. guestions, comments, death threats, email me at alexhaeni@cogeco.ca
Comments