Children Of Bodom - Children Of Bodom Chords & Tabs

 

Children Of Bodom Chords & Tabs

Children Of Bodom Chords & Tabs

Version: 1 Type: Tab 0 ratings
1 star 2 stars 3 stars 4 stars 5 stars
comments

Children Of Bodom Tab

   
              'CHILDREN OF BODOM' BY CHILDREN OF BODOM
                      FROM "CHILDREN OF BODOM" CD-SINGLE
                      COPYRIGHT 1998 SPINEFARM

                Transcribed by Janne Posti
                E-mail address: baq039r@tninet.se

                          Version 1.1 - December 1998

-------------------------------------------------------------------------=
---
NOTES:
Tuning: Tune down one whole step (1:D, 2:G, 3:C, 4:F, 5:A, 6:D)

Timing: Listen to music for actual timing...

Notation: When two guitars are listed play all guitars simultaneously.
          ~ =3D vibrate                 \ =3D slide down
          h =3D hammer-on         / =3D slide up
          p =3D pull-off          =D7 =3D pick scrape
          t =3D tapping         . =3D palm mute

WARNING!!: For example 11 is 11, not two 1's.

------------------------------------------------------------------------------------
[ Tab from: http://www.guitartabs.cc/tabs/c/children_of_bodom/children_of_bodom_tab.html ]
Hi ho, here's my bad effort to transcribe the masterpiece "Children of
Bodom". I only tabbed the first riff, as I was too lazy writing down
tabs in general. I'll do that later. Anyways please send me your
comments...
1this piece is not correct at all

RIFF A
|-------------------------------------------------------------------------|
|-------------------------------------------------------------------------|
|------------------------------7---7---77----7---7---77--------5---4/5----|
|-9---9---7-9-10-9---9---7h9p7-9---9---99----9---9---99--------7---7------|
|-7---7---7-7-7--7---7---7---------------------------------7--------------|
|---0---0-.-.-.----0---0---------7---7-----7---7---7-----7-5-5---5------5-|
    .   .          .   .         .   .     .   .   .     .   .   .      .


|---------------------------------------|
|---------------------------------------|
|---------------------------------------|
|---2----4--9---7/9-10\9-7/9---7/9-10-7-|
|-333--555--7---5/7-8-\7-5/7---5/7-8--5-|
|-..---..-----0--------------0----------|
              .              .
Comments